  0
SECTION
  2
HEADER
  9
$ACADVER
  1
AC1006
  9
$AXISMODE
 70
     0
  9
$AXISUNIT
 10
0.0625
 20
0.0625
  9
$CECOLOR
 62
0
  9
$CELTYPE
  6
CONTINUOUS
  9
$CLAYER
  8
LAYER1
  9
$EXTMIN
 10
0
 20
0
  9
$EXTMAX
 10
14.3646
 20
10.9145
  9
$LIMMIN
 10
0
 20
0
  9
$LIMMAX
 10
14.3646
 20
10.9145
  9
$GRIDMODE
 70
     0
  9
$GRIDUNIT
 10
0.125
 20
0.125
  9
$MIRRTEXT
 70
     1
  9
$SNAPMODE
 70
     1
  9
$SNAPUNIT
 10
0.125
 20
0
  9
$SNAPSTYLE
 70
     0
  9
$SPLINESEGS
 70
     8
  9
$SPLINETYPE
 70
     6
  0
ENDSEC
  0
SECTION
  2
TABLES
  0TABLE  2VPORT 70     2  0VPORT  2*ACTIVE 70     0 100.0 200.0 111.0 211.0 1213.01087 224.5 130.0 230.0 141.0 241.0 150.0 250.0 160.0 260.0 361.0 170.0 270.0 370.0 409.0 412.891304 4250.0 430.0 440.0 500.0 510.0 71     0 72   100 73     1 74     1 75     0 76     0 77     0 78     0  0ENDTAB
  0
TABLE
  2
LTYPE
 70
     1
  0
LTYPE
  2
CONTINUOUS
 70
    64
  3
Descriptive Text
 72
    65
 73
     0
 40
0
  0
ENDTAB
  0
TABLE
  2
LAYER
 70
     1
  0
LAYER
  2
LAYER1
 70
     0
 62
     7
  6
CONTINUOUS
  0
ENDTAB
  0TABLE  2STYLE 70     1  0STYLE  2STANDARD 70     0 400.0 411.0 500.0 71     0 420.2  3txt  4  0ENDTAB
  0
TABLE
  2
VIEW
 70
     0
  0
ENDTAB
  0
TABLE
  2
UCS
 70
     0
  0
ENDTAB
  0
TABLE
  2
DWGMGR
 70
     0
  0
ENDTAB
  0
ENDSEC
  0
SECTION
  2
BLOCKS
  0
BLOCK
  8
LAYER1
  2
Group1
 70
     0
 10
0
 20
0
 30
0
  0
LINE
  8
LAYER1
  6
CONTINUOUS
 62
     7
 10
0.8889
 20
8.3312
 30
0
 11
0.9028
 21
8.345
 31
0
  0
ENDBLK
  8
LAYER1
  0
BLOCK
  8
LAYER1
  2
Group2
 70
     0
 10
0
 20
0
 30
0
  0
POLYLINE
  8
LAYER1
  6
CONTINUOUS
 62
     7
 66
     1
 70
     0
 40
0.001
 41
0.001
  0
VERTEX
  8
LAYER1
 10
0.8889
 20
8.345
 30
0
 70
     0
  0
VERTEX
  8
LAYER1
 10
0.9444
 20
8.345
 30
0
 70
     0
  0
VERTEX
  8
LAYER1
 10
0.9444
 20
8.2895
 30
0
 70
     0
  0
VERTEX
  8
LAYER1
 10
0.8889
 20
8.2895
 30
0
 70
     0
  0
VERTEX
  8
LAYER1
 10
0.8889
 20
8.345
 30
0
 70
     0
  0
SEQEND
  0
INSERT
  8
LAYER1
  2
Group1
 10
0
 20
0
 30
0
  0
ENDBLK
  8
LAYER1
  0
BLOCK
  8
LAYER1
  2
Group3
 70
     0
 10
0
 20
0
 30
0
  0
CIRCLE
  8
LAYER1
 10
2.3611
 20
7.3728
 30
0
 40
0.0417
  0
LINE
  8
LAYER1
  6
CONTINUOUS
 62
     7
 10
2.3472
 20
7.3589
 30
0
 11
2.375
 21
7.3867
 31
0
  0
ENDBLK
  8
LAYER1
  0
BLOCK
  8
LAYER1
  2
Group4
 70
     0
 10
0
 20
0
 30
0
  0
LINE
  8
LAYER1
  6
CONTINUOUS
 62
     7
 10
2.3194
 20
7.4006
 30
0
 11
2.3333
 21
7.4145
 31
0
  0
POLYLINE
  8
LAYER1
  6
CONTINUOUS
 62
     7
 66
     1
 70
     0
 40
0.001
 41
0.001
  0
VERTEX
  8
LAYER1
 10
0.875
 20
7.4145
 30
0
 70
     0
  0
VERTEX
  8
LAYER1
 10
0.9583
 20
7.4145
 30
0
 70
     0
  0
VERTEX
  8
LAYER1
 10
0.9583
 20
7.3312
 30
0
 70
     0
  0
VERTEX
  8
LAYER1
 10
0.875
 20
7.3312
 30
0
 70
     0
  0
VERTEX
  8
LAYER1
 10
0.875
 20
7.4145
 30
0
 70
     0
  0
SEQEND
  0
LINE
  8
LAYER1
  6
CONTINUOUS
 62
     7
 10
0.8889
 20
7.345
 30
0
 11
0.9444
 21
7.4006
 31
0
  0
ENDBLK
  8
LAYER1
  0
BLOCK
  8
LAYER1
  2
Group5
 70
     0
 10
0
 20
0
 30
0
  0
LINE
  8
LAYER1
  6
CONTINUOUS
 62
     7
 10
2.375
 20
6.2062
 30
0
 11
2.375
 21
6.22
 31
0
  0
LINE
  8
LAYER1
  6
CONTINUOUS
 62
     7
 10
2.3056
 20
6.2478
 30
0
 11
2.3472
 21
6.2895
 31
0
  0
ENDBLK
  8
LAYER1
  0
BLOCK
  8
LAYER1
  2
Group6
 70
     0
 10
0
 20
0
 30
0
  0
LINE
  8
LAYER1
  6
CONTINUOUS
 62
     7
 10
0.9167
 20
7.345
 30
0
 11
0.9444
 21
7.3728
 31
0
  0
CIRCLE
  8
LAYER1
 10
2.3542
 20
6.2409
 30
0
 40
0.0486
  0
INSERT
  8
LAYER1
  2
Group5
 10
0
 20
0
 30
0
  0
ENDBLK
  8
LAYER1
  0
BLOCK
  8
LAYER1
  2
Group7
 70
     0
 10
0
 20
0
 30
0
  0
LINE
  8
LAYER1
  6
CONTINUOUS
 62
     7
 10
0.875
 20
6.2062
 30
0
 11
0.9444
 21
6.2756
 31
0
  0
LINE
  8
LAYER1
  6
CONTINUOUS
 62
     7
 10
0.9028
 20
6.2062
 30
0
 11
0.9444
 21
6.2478
 31
0
  0
ENDBLK
  8
LAYER1
  0
BLOCK
  8
LAYER1
  2
Group8
 70
     0
 10
0
 20
0
 30
0
  0
LINE
  8
LAYER1
  6
CONTINUOUS
 62
     7
 10
2.3056
 20
6.22
 30
0
 11
2.3611
 21
6.2756
 31
0
  0
POLYLINE
  8
LAYER1
  6
CONTINUOUS
 62
     7
 66
     1
 70
     0
 40
0.001
 41
0.001
  0
VERTEX
  8
LAYER1
 10
0.8611
 20
6.2895
 30
0
 70
     0
  0
VERTEX
  8
LAYER1
 10
0.9583
 20
6.2895
 30
0
 70
     0
  0
VERTEX
  8
LAYER1
 10
0.9583
 20
6.1923
 30
0
 70
     0
  0
VERTEX
  8
LAYER1
 10
0.8611
 20
6.1923
 30
0
 70
     0
  0
VERTEX
  8
LAYER1
 10
0.8611
 20
6.2895
 30
0
 70
     0
  0
SEQEND
  0
INSERT
  8
LAYER1
  2
Group7
 10
0
 20
0
 30
0
  0
ENDBLK
  8
LAYER1
  0
BLOCK
  8
LAYER1
  2
Group9
 70
     0
 10
0
 20
0
 30
0
  0
LINE
  8
LAYER1
  6
CONTINUOUS
 62
     7
 10
2.3611
 20
4.97
 30
0
 11
2.4306
 21
5.0395
 31
0
  0
LINE
  8
LAYER1
  6
CONTINUOUS
 62
     7
 10
2.2778
 20
4.9978
 30
0
 11
2.4028
 21
5.1228
 31
0
  0
LINE
  8
LAYER1
  6
CONTINUOUS
 62
     7
 10
2.2917
 20
4.9839
 30
0
 11
2.4167
 21
5.1089
 31
0
  0
ENDBLK
  8
LAYER1
  0
BLOCK
  8
LAYER1
  2
Group10
 70
     0
 10
0
 20
0
 30
0
  0
LINE
  8
LAYER1
  6
CONTINUOUS
 62
     7
 10
0.8611
 20
6.2617
 30
0
 11
0.8889
 21
6.2895
 31
0
  0
CIRCLE
  8
LAYER1
 10
2.3542
 20
5.0464
 30
0
 40
0.0903
  0
INSERT
  8
LAYER1
  2
Group9
 10
0
 20
0
 30
0
  0
ENDBLK
  8
LAYER1
  0
BLOCK
  8
LAYER1
  2
Group11
 70
     0
 10
0
 20
0
 30
0
  0
LINE
  8
LAYER1
  6
CONTINUOUS
 62
     7
 10
0.9167
 20
4.9562
 30
0
 11
0.9861
 21
5.0256
 31
0
  0
LINE
  8
LAYER1
  6
CONTINUOUS
 62
     7
 10
0.8194
 20
4.97
 30
0
 11
0.9722
 21
5.1228
 31
0
  0
LINE
  8
LAYER1
  6
CONTINUOUS
 62
     7
 10
0.8194
 20
5.0812
 30
0
 11
0.875
 21
5.1228
 31
0
  0
LINE
  8
LAYER1
  6
CONTINUOUS
 62
     7
 10
0.9444
 20
4.9562
 30
0
 11
0.9861
 21
4.9978
 31
0
  0
LINE
  8
LAYER1
  6
CONTINUOUS
 62
     7
 10
0.8333
 20
4.9562
 30
0
 11
0.9861
 21
5.1089
 31
0
  0
ENDBLK
  8
LAYER1
  0
BLOCK
  8
LAYER1
  2
Group12
 70
     0
 10
0
 20
0
 30
0
  0
LINE
  8
LAYER1
  6
CONTINUOUS
 62
     7
 10
2.2639
 20
5.0673
 30
0
 11
2.3333
 21
5.1367
 31
0
  0
POLYLINE
  8
LAYER1
  6
CONTINUOUS
 62
     7
 66
     1
 70
     0
 40
0.001
 41
0.001
  0
VERTEX
  8
LAYER1
 10
0.8194
 20
5.1228
 30
0
 70
     0
  0
VERTEX
  8
LAYER1
 10
1
 20
5.1228
 30
0
 70
     0
  0
VERTEX
  8
LAYER1
 10
1
 20
4.9423
 30
0
 70
     0
  0
VERTEX
  8
LAYER1
 10
0.8194
 20
4.9423
 30
0
 70
     0
  0
VERTEX
  8
LAYER1
 10
0.8194
 20
5.1228
 30
0
 70
     0
  0
SEQEND
  0
INSERT
  8
LAYER1
  2
Group11
 10
0
 20
0
 30
0
  0
ENDBLK
  8
LAYER1
  0
BLOCK
  8
LAYER1
  2
Group13
 70
     0
 10
0
 20
0
 30
0
  0
LINE
  8
LAYER1
  6
CONTINUOUS
 62
     7
 10
2.375
 20
3.5812
 30
0
 11
2.4722
 21
3.6784
 31
0
  0
LINE
  8
LAYER1
  6
CONTINUOUS
 62
     7
 10
2.2778
 20
3.595
 30
0
 11
2.4583
 21
3.7617
 31
0
  0
LINE
  8
LAYER1
  6
CONTINUOUS
 62
     7
 10
2.2361
 20
3.6506
 30
0
 11
2.3889
 21
3.8173
 31
0
  0
LINE
  8
LAYER1
  6
CONTINUOUS
 62
     7
 10
2.2361
 20
3.7756
 30
0
 11
2.2778
 21
3.8034
 31
0
  0
LINE
  8
LAYER1
  6
CONTINUOUS
 62
     7
 10
2.4167
 20
3.595
 30
0
 11
2.4583
 21
3.6367
 31
0
  0
LINE
  8
LAYER1
  6
CONTINUOUS
 62
     7
 10
2.2917
 20
3.5812
 30
0
 11
2.4583
 21
3.7478
 31
0
  0
LINE
  8
LAYER1
  6
CONTINUOUS
 62
     7
 10
2.2361
 20
3.6367
 30
0
 11
2.4167
 21
3.8034
 31
0
  0
ENDBLK
  8
LAYER1
  0
BLOCK
  8
LAYER1
  2
Group14
 70
     0
 10
0
 20
0
 30
0
  0
LINE
  8
LAYER1
  6
CONTINUOUS
 62
     7
 10
0.8194
 20
5.0534
 30
0
 11
0.9028
 21
5.1228
 31
0
  0
CIRCLE
  8
LAYER1
 10
2.3542
 20
3.6992
 30
0
 40
0.1319
  0
INSERT
  8
LAYER1
  2
Group13
 10
0
 20
0
 30
0
  0
ENDBLK
  8
LAYER1
  0
BLOCK
  8
LAYER1
  2
Group15
 70
     0
 10
0
 20
0
 30
0
  0
LINE
  8
LAYER1
  6
CONTINUOUS
 62
     7
 10
0.9306
 20
3.595
 30
0
 11
1.0278
 21
3.6923
 31
0
  0
LINE
  8
LAYER1
  6
CONTINUOUS
 62
     7
 10
0.8333
 20
3.595
 30
0
 11
1.0278
 21
3.8034
 31
0
  0
LINE
  8
LAYER1
  6
CONTINUOUS
 62
     7
 10
0.7778
 20
3.6645
 30
0
 11
0.9722
 21
3.845
 31
0
  0
LINE
  8
LAYER1
  6
CONTINUOUS
 62
     7
 10
0.7778
 20
3.7617
 30
0
 11
0.8611
 21
3.845
 31
0
  0
LINE
  8
LAYER1
  6
CONTINUOUS
 62
     7
 10
0.9583
 20
3.595
 30
0
 11
1.0278
 21
3.6645
 31
0
  0
LINE
  8
LAYER1
  6
CONTINUOUS
 62
     7
 10
0.8611
 20
3.595
 30
0
 11
1.0278
 21
3.7756
 31
0
  0
LINE
  8
LAYER1
  6
CONTINUOUS
 62
     7
 10
0.7778
 20
3.6367
 30
0
 11
1
 21
3.845
 31
0
  0
LINE
  8
LAYER1
  6
CONTINUOUS
 62
     7
 10
0.7778
 20
3.7339
 30
0
 11
0.8889
 21
3.845
 31
0
  0
ENDBLK
  8
LAYER1
  0
BLOCK
  8
LAYER1
  2
Group16
 70
     0
 10
0
 20
0
 30
0
  0
LINE
  8
LAYER1
  6
CONTINUOUS
 62
     7
 10
2.2222
 20
3.72
 30
0
 11
2.3194
 21
3.8312
 31
0
  0
POLYLINE
  8
LAYER1
  6
CONTINUOUS
 62
     7
 66
     1
 70
     0
 40
0.001
 41
0.001
  0
VERTEX
  8
LAYER1
 10
0.7778
 20
3.845
 30
0
 70
     0
  0
VERTEX
  8
LAYER1
 10
1.0417
 20
3.845
 30
0
 70
     0
  0
VERTEX
  8
LAYER1
 10
1.0417
 20
3.5812
 30
0
 70
     0
  0
VERTEX
  8
LAYER1
 10
0.7778
 20
3.5812
 30
0
 70
     0
  0
VERTEX
  8
LAYER1
 10
0.7778
 20
3.845
 30
0
 70
     0
  0
SEQEND
  0
INSERT
  8
LAYER1
  2
Group15
 10
0
 20
0
 30
0
  0
ENDBLK
  8
LAYER1
  0
BLOCK
  8
LAYER1
  2
Group17
 70
     0
 10
0
 20
0
 30
0
  0
LINE
  8
LAYER1
  6
CONTINUOUS
 62
     7
 10
1.0139
 20
2.1645
 30
0
 11
1.0694
 21
2.22
 31
0
  0
LINE
  8
LAYER1
  6
CONTINUOUS
 62
     7
 10
0.9167
 20
2.1645
 30
0
 11
1.0694
 21
2.3312
 31
0
  0
LINE
  8
LAYER1
  6
CONTINUOUS
 62
     7
 10
0.8056
 20
2.1645
 30
0
 11
1.0694
 21
2.4284
 31
0
  0
LINE
  8
LAYER1
  6
CONTINUOUS
 62
     7
 10
0.7361
 20
2.2062
 30
0
 11
1.0278
 21
2.4978
 31
0
  0
LINE
  8
LAYER1
  6
CONTINUOUS
 62
     7
 10
0.7361
 20
2.3034
 30
0
 11
0.9306
 21
2.4978
 31
0
  0
LINE
  8
LAYER1
  6
CONTINUOUS
 62
     7
 10
0.7361
 20
2.4145
 30
0
 11
0.8194
 21
2.4978
 31
0
  0
LINE
  8
LAYER1
  6
CONTINUOUS
 62
     7
 10
1.0417
 20
2.1645
 30
0
 11
1.0694
 21
2.1923
 31
0
  0
LINE
  8
LAYER1
  6
CONTINUOUS
 62
     7
 10
0.9444
 20
2.1645
 30
0
 11
1.0694
 21
2.3034
 31
0
  0
LINE
  8
LAYER1
  6
CONTINUOUS
 62
     7
 10
0.8333
 20
2.1645
 30
0
 11
1.0694
 21
2.4006
 31
0
  0
LINE
  8
LAYER1
  6
CONTINUOUS
 62
     7
 10
0.7361
 20
2.1784
 30
0
 11
1.0556
 21
2.4978
 31
0
  0
LINE
  8
LAYER1
  6
CONTINUOUS
 62
     7
 10
0.7361
 20
2.2895
 30
0
 11
0.9583
 21
2.4978
 31
0
  0
ENDBLK
  8
LAYER1
  0
BLOCK
  8
LAYER1
  2
Group18
 70
     0
 10
0
 20
0
 30
0
  0
LINE
  8
LAYER1
  6
CONTINUOUS
 62
     7
 10
0.7778
 20
3.845
 30
0
 11
0.7917
 21
3.845
 31
0
  0
POLYLINE
  8
LAYER1
  6
CONTINUOUS
 62
     7
 66
     1
 70
     0
 40
0.001
 41
0.001
  0
VERTEX
  8
LAYER1
 10
0.7361
 20
2.4978
 30
0
 70
     0
  0
VERTEX
  8
LAYER1
 10
1.0833
 20
2.4978
 30
0
 70
     0
  0
VERTEX
  8
LAYER1
 10
1.0833
 20
2.1506
 30
0
 70
     0
  0
VERTEX
  8
LAYER1
 10
0.7361
 20
2.1506
 30
0
 70
     0
  0
VERTEX
  8
LAYER1
 10
0.7361
 20
2.4978
 30
0
 70
     0
  0
SEQEND
  0
INSERT
  8
LAYER1
  2
Group17
 10
0
 20
0
 30
0
  0
ENDBLK
  8
LAYER1
  0
BLOCK
  8
LAYER1
  2
Group19
 70
     0
 10
0
 20
0
 30
0
  0
LINE
  8
LAYER1
  6
CONTINUOUS
 62
     7
 10
2.3611
 20
2.1367
 30
0
 11
2.5139
 21
2.2895
 31
0
  0
LINE
  8
LAYER1
  6
CONTINUOUS
 62
     7
 10
2.2778
 20
2.1506
 30
0
 11
2.5
 21
2.3867
 31
0
  0
LINE
  8
LAYER1
  6
CONTINUOUS
 62
     7
 10
2.2083
 20
2.2062
 30
0
 11
2.4444
 21
2.4423
 31
0
  0
LINE
  8
LAYER1
  6
CONTINUOUS
 62
     7
 10
2.1806
 20
2.2756
 30
0
 11
2.375
 21
2.47
 31
0
  0
LINE
  8
LAYER1
  6
CONTINUOUS
 62
     7
 10
2.3889
 20
2.1506
 30
0
 11
2.5
 21
2.2617
 31
0
  0
LINE
  8
LAYER1
  6
CONTINUOUS
 62
     7
 10
2.2917
 20
2.1506
 30
0
 11
2.5
 21
2.3589
 31
0
  0
LINE
  8
LAYER1
  6
CONTINUOUS
 62
     7
 10
2.2222
 20
2.1923
 30
0
 11
2.4583
 21
2.4284
 31
0
  0
LINE
  8
LAYER1
  6
CONTINUOUS
 62
     7
 10
2.1806
 20
2.2617
 30
0
 11
2.3889
 21
2.47
 31
0
  0
ENDBLK
  8
LAYER1
  0
BLOCK
  8
LAYER1
  2
Group20
 70
     0
 10
0
 20
0
 30
0
  0
LINE
  8
LAYER1
  6
CONTINUOUS
 62
     7
 10
0.7361
 20
2.3867
 30
0
 11
0.8472
 21
2.4978
 31
0
  0
CIRCLE
  8
LAYER1
 10
2.3542
 20
2.2964
 30
0
 40
0.1736
  0
INSERT
  8
LAYER1
  2
Group19
 10
0
 20
0
 30
0
  0
ENDBLK
  8
LAYER1
  0
BLOCK
  8
LAYER1
  2
Group21
 70
     0
 10
0
 20
0
 30
0
  0
LINE
  8
LAYER1
  6
CONTINUOUS
 62
     7
 10
5.4722
 20
9.1506
 30
0
 11
5.5417
 21
9.22
 31
0
  0
LINE
  8
LAYER1
  6
CONTINUOUS
 62
     7
 10
5.3472
 20
9.1228
 30
0
 11
5.5694
 21
9.3589
 31
0
  0
LINE
  8
LAYER1
  6
CONTINUOUS
 62
     7
 10
5.2639
 20
9.1506
 30
0
 11
5.5417
 21
9.4284
 31
0
  0
LINE
  8
LAYER1
  6
CONTINUOUS
 62
     7
 10
5.2083
 20
9.1923
 30
0
 11
5.5
 21
9.4839
 31
0
  0
LINE
  8
LAYER1
  6
CONTINUOUS
 62
     7
 10
5.1667
 20
9.2617
 30
0
 11
5.4306
 21
9.5256
 31
0
  0
LINE
  8
LAYER1
  6
CONTINUOUS
 62
     7
 10
5.1667
 20
9.3589
 30
0
 11
5.3333
 21
9.5256
 31
0
  0
LINE
  8
LAYER1
  6
CONTINUOUS
 62
     7
 10
5.3611
 20
9.1228
 30
0
 11
5.5694
 21
9.3312
 31
0
  0
LINE
  8
LAYER1
  6
CONTINUOUS
 62
     7
 10
5.2778
 20
9.1367
 30
0
 11
5.5556
 21
9.4145
 31
0
  0
LINE
  8
LAYER1
  6
CONTINUOUS
 62
     7
 10
5.2222
 20
9.1784
 30
0
 11
5.5139
 21
9.47
 31
0
  0
LINE
  8
LAYER1
  6
CONTINUOUS
 62
     7
 10
5.1806
 20
9.2478
 30
0
 11
5.4444
 21
9.5256
 31
0
  0
ENDBLK
  8
LAYER1
  0
BLOCK
  8
LAYER1
  2
Group22
 70
     0
 10
0
 20
0
 30
0
  0
LINE
  8
LAYER1
  6
CONTINUOUS
 62
     7
 10
2.1944
 20
2.3728
 30
0
 11
2.2917
 21
2.4562
 31
0
  0
CIRCLE
  8
LAYER1
 10
5.3681
 20
9.3242
 30
0
 40
0.2153
  0
INSERT
  8
LAYER1
  2
Group21
 10
0
 20
0
 30
0
  0
ENDBLK
  8
LAYER1
  0
BLOCK
  8
LAYER1
  2
Group23
 70
     0
 10
0
 20
0
 30
0
  0
LINE
  8
LAYER1
  6
CONTINUOUS
 62
     7
 10
4.0278
 20
9.1645
 30
0
 11
4.125
 21
9.2617
 31
0
  0
LINE
  8
LAYER1
  6
CONTINUOUS
 62
     7
 10
3.9167
 20
9.1645
 30
0
 11
4.125
 21
9.3728
 31
0
  0
LINE
  8
LAYER1
  6
CONTINUOUS
 62
     7
 10
3.8056
 20
9.1645
 30
0
 11
4.125
 21
9.47
 31
0
  0
LINE
  8
LAYER1
  6
CONTINUOUS
 62
     7
 10
3.7083
 20
9.1645
 30
0
 11
4.125
 21
9.5812
 31
0
  0
LINE
  8
LAYER1
  6
CONTINUOUS
 62
     7
 10
3.7083
 20
9.2756
 30
0
 11
4.0139
 21
9.5812
 31
0
  0
LINE
  8
LAYER1
  6
CONTINUOUS
 62
     7
 10
3.7083
 20
9.3728
 30
0
 11
3.9167
 21
9.5812
 31
0
  0
LINE
  8
LAYER1
  6
CONTINUOUS
 62
     7
 10
3.7083
 20
9.4839
 30
0
 11
3.8056
 21
9.5812
 31
0
  0
LINE
  8
LAYER1
  6
CONTINUOUS
 62
     7
 10
4.0556
 20
9.1645
 30
0
 11
4.125
 21
9.2339
 31
0
  0
LINE
  8
LAYER1
  6
CONTINUOUS
 62
     7
 10
3.9444
 20
9.1645
 30
0
 11
4.125
 21
9.345
 31
0
  0
LINE
  8
LAYER1
  6
CONTINUOUS
 62
     7
 10
3.8333
 20
9.1645
 30
0
 11
4.125
 21
9.4562
 31
0
  0
LINE
  8
LAYER1
  6
CONTINUOUS
 62
     7
 10
3.7361
 20
9.1645
 30
0
 11
4.125
 21
9.5534
 31
0
  0
LINE
  8
LAYER1
  6
CONTINUOUS
 62
     7
 10
3.7083
 20
9.2478
 30
0
 11
4.0417
 21
9.5812
 31
0
  0
LINE
  8
LAYER1
  6
CONTINUOUS
 62
     7
 10
3.7083
 20
9.345
 30
0
 11
3.9306
 21
9.5812
 31
0
  0
LINE
  8
LAYER1
  6
CONTINUOUS
 62
     7
 10
3.7083
 20
9.4562
 30
0
 11
3.8333
 21
9.5812
 31
0
  0
ENDBLK
  8
LAYER1
  0
BLOCK
  8
LAYER1
  2
Group24
 70
     0
 10
0
 20
0
 30
0
  0
LINE
  8
LAYER1
  6
CONTINUOUS
 62
     7
 10
5.1528
 20
9.3312
 30
0
 11
5.3611
 21
9.5395
 31
0
  0
POLYLINE
  8
LAYER1
  6
CONTINUOUS
 62
     7
 66
     1
 70
     0
 40
0.001
 41
0.001
  0
VERTEX
  8
LAYER1
 10
3.7083
 20
9.5812
 30
0
 70
     0
  0
VERTEX
  8
LAYER1
 10
4.1389
 20
9.5812
 30
0
 70
     0
  0
VERTEX
  8
LAYER1
 10
4.1389
 20
9.1506
 30
0
 70
     0
  0
VERTEX
  8
LAYER1
 10
3.7083
 20
9.1506
 30
0
 70
     0
  0
VERTEX
  8
LAYER1
 10
3.7083
 20
9.5812
 30
0
 70
     0
  0
SEQEND
  0
INSERT
  8
LAYER1
  2
Group23
 10
0
 20
0
 30
0
  0
ENDBLK
  8
LAYER1
  0
BLOCK
  8
LAYER1
  2
Group25
 70
     0
 10
0
 20
0
 30
0
  0
LINE
  8
LAYER1
  6
CONTINUOUS
 62
     7
 10
5.4306
 20
7.7339
 30
0
 11
5.6111
 21
7.9145
 31
0
  0
LINE
  8
LAYER1
  6
CONTINUOUS
 62
     7
 10
5.3194
 20
7.7339
 30
0
 11
5.6111
 21
8.0256
 31
0
  0
LINE
  8
LAYER1
  6
CONTINUOUS
 62
     7
 10
5.2361
 20
7.7617
 30
0
 11
5.5833
 21
8.095
 31
0
  0
LINE
  8
LAYER1
  6
CONTINUOUS
 62
     7
 10
5.1806
 20
7.8034
 30
0
 11
5.5417
 21
8.1506
 31
0
  0
LINE
  8
LAYER1
  6
CONTINUOUS
 62
     7
 10
5.1389
 20
7.8589
 30
0
 11
5.4722
 21
8.1923
 31
0
  0
LINE
  8
LAYER1
  6
CONTINUOUS
 62
     7
 10
5.1111
 20
7.9423
 30
0
 11
5.3889
 21
8.22
 31
0
  0
LINE
  8
LAYER1
  6
CONTINUOUS
 62
     7
 10
5.1389
 20
8.0812
 30
0
 11
5.2639
 21
8.2062
 31
0
  0
LINE
  8
LAYER1
  6
CONTINUOUS
 62
     7
 10
5.4722
 20
7.7478
 30
0
 11
5.5972
 21
7.8728
 31
0
  0
LINE
  8
LAYER1
  6
CONTINUOUS
 62
     7
 10
5.3472
 20
7.72
 30
0
 11
5.6111
 21
7.9978
 31
0
  0
LINE
  8
LAYER1
  6
CONTINUOUS
 62
     7
 10
5.2639
 20
7.7478
 30
0
 11
5.5972
 21
8.0812
 31
0
  0
LINE
  8
LAYER1
  6
CONTINUOUS
 62
     7
 10
5.1944
 20
7.7895
 30
0
 11
5.5556
 21
8.1367
 31
0
  0
LINE
  8
LAYER1
  6
CONTINUOUS
 62
     7
 10
5.1528
 20
7.845
 30
0
 11
5.4861
 21
8.1923
 31
0
  0
LINE
  8
LAYER1
  6
CONTINUOUS
 62
     7
 10
5.125
 20
7.9284
 30
0
 11
5.4167
 21
8.22
 31
0
  0
ENDBLK
  8
LAYER1
  0
BLOCK
  8
LAYER1
  2
Group26
 70
     0
 10
0
 20
0
 30
0
  0
LINE
  8
LAYER1
  6
CONTINUOUS
 62
     7
 10
3.7083
 20
9.5673
 30
0
 11
3.7222
 21
9.5812
 31
0
  0
CIRCLE
  8
LAYER1
 10
5.3681
 20
7.9631
 30
0
 40
0.2569
  0
INSERT
  8
LAYER1
  2
Group25
 10
0
 20
0
 30
0
  0
ENDBLK
  8
LAYER1
  0
BLOCK
  8
LAYER1
  2
Group27
 70
     0
 10
0
 20
0
 30
0
  0
LINE
  8
LAYER1
  6
CONTINUOUS
 62
     7
 10
4.125
 20
7.72
 30
0
 11
4.1667
 21
7.7617
 31
0
  0
LINE
  8
LAYER1
  6
CONTINUOUS
 62
     7
 10
4.0278
 20
7.72
 30
0
 11
4.1667
 21
7.8728
 31
0
  0
LINE
  8
LAYER1
  6
CONTINUOUS
 62
     7
 10
3.9167
 20
7.72
 30
0
 11
4.1667
 21
7.97
 31
0
  0
LINE
  8
LAYER1
  6
CONTINUOUS
 62
     7
 10
3.8056
 20
7.72
 30
0
 11
4.1667
 21
8.0812
 31
0
  0
LINE
  8
LAYER1
  6
CONTINUOUS
 62
     7
 10
3.7083
 20
7.72
 30
0
 11
4.1667
 21
8.1923
 31
0
  0
LINE
  8
LAYER1
  6
CONTINUOUS
 62
     7
 10
3.6667
 20
7.7895
 30
0
 11
4.0972
 21
8.22
 31
0
  0
LINE
  8
LAYER1
  6
CONTINUOUS
 62
     7
 10
3.6667
 20
7.9006
 30
0
 11
4
 21
8.22
 31
0
  0
LINE
  8
LAYER1
  6
CONTINUOUS
 62
     7
 10
3.6667
 20
8.0117
 30
0
 11
3.8889
 21
8.22
 31
0
  0
LINE
  8
LAYER1
  6
CONTINUOUS
 62
     7
 10
3.6667
 20
8.1089
 30
0
 11
3.7778
 21
8.22
 31
0
  0
LINE
  8
LAYER1
  6
CONTINUOUS
 62
     7
 10
3.6667
 20
8.22
 30
0
 11
3.6806
 21
8.22
 31
0
  0
LINE
  8
LAYER1
  6
CONTINUOUS
 62
     7
 10
4.1528
 20
7.72
 30
0
 11
4.1667
 21
7.7339
 31
0
  0
LINE
  8
LAYER1
  6
CONTINUOUS
 62
     7
 10
4.0556
 20
7.72
 30
0
 11
4.1667
 21
7.845
 31
0
  0
LINE
  8
LAYER1
  6
CONTINUOUS
 62
     7
 10
3.9444
 20
7.72
 30
0
 11
4.1667
 21
7.9423
 31
0
  0
LINE
  8
LAYER1
  6
CONTINUOUS
 62
     7
 10
3.8333
 20
7.72
 30
0
 11
4.1667
 21
8.0534
 31
0
  0
LINE
  8
LAYER1
  6
CONTINUOUS
 62
     7
 10
3.7361
 20
7.72
 30
0
 11
4.1667
 21
8.1645
 31
0
  0
LINE
  8
LAYER1
  6
CONTINUOUS
 62
     7
 10
3.6667
 20
7.7617
 30
0
 11
4.125
 21
8.22
 31
0
  0
LINE
  8
LAYER1
  6
CONTINUOUS
 62
     7
 10
3.6667
 20
7.8728
 30
0
 11
4.0139
 21
8.22
 31
0
  0
LINE
  8
LAYER1
  6
CONTINUOUS
 62
     7
 10
3.6667
 20
7.9839
 30
0
 11
3.9167
 21
8.22
 31
0
  0
LINE
  8
LAYER1
  6
CONTINUOUS
 62
     7
 10
3.6667
 20
8.0812
 30
0
 11
3.8056
 21
8.22
 31
0
  0
ENDBLK
  8
LAYER1
  0
BLOCK
  8
LAYER1
  2
Group28
 70
     0
 10
0
 20
0
 30
0
  0
LINE
  8
LAYER1
  6
CONTINUOUS
 62
     7
 10
5.125
 20
8.0395
 30
0
 11
5.3056
 21
8.22
 31
0
  0
POLYLINE
  8
LAYER1
  6
CONTINUOUS
 62
     7
 66
     1
 70
     0
 40
0.001
 41
0.001
  0
VERTEX
  8
LAYER1
 10
3.6667
 20
8.22
 30
0
 70
     0
  0
VERTEX
  8
LAYER1
 10
4.1806
 20
8.22
 30
0
 70
     0
  0
VERTEX
  8
LAYER1
 10
4.1806
 20
7.7062
 30
0
 70
     0
  0
VERTEX
  8
LAYER1
 10
3.6667
 20
7.7062
 30
0
 70
     0
  0
VERTEX
  8
LAYER1
 10
3.6667
 20
8.22
 30
0
 70
     0
  0
SEQEND
  0
INSERT
  8
LAYER1
  2
Group27
 10
0
 20
0
 30
0
  0
ENDBLK
  8
LAYER1
  0
BLOCK
  8
LAYER1
  2
Group29
 70
     0
 10
0
 20
0
 30
0
  0
LINE
  8
LAYER1
  6
CONTINUOUS
 62
     7
 10
5.5
 20
5.8728
 30
0
 11
5.625
 21
6.0117
 31
0
  0
LINE
  8
LAYER1
  6
CONTINUOUS
 62
     7
 10
5.3611
 20
5.845
 30
0
 11
5.6528
 21
6.1506
 31
0
  0
LINE
  8
LAYER1
  6
CONTINUOUS
 62
     7
 10
5.2639
 20
5.8589
 30
0
 11
5.6389
 21
6.2339
 31
0
  0
LINE
  8
LAYER1
  6
CONTINUOUS
 62
     7
 10
5.1944
 20
5.9006
 30
0
 11
5.6111
 21
6.3034
 31
0
  0
LINE
  8
LAYER1
  6
CONTINUOUS
 62
     7
 10
5.1389
 20
5.9562
 30
0
 11
5.5556
 21
6.3589
 31
0
  0
LINE
  8
LAYER1
  6
CONTINUOUS
 62
     7
 10
5.0972
 20
6.0117
 30
0
 11
5.4861
 21
6.4006
 31
0
  0
LINE
  8
LAYER1
  6
CONTINUOUS
 62
     7
 10
5.0833
 20
6.095
 30
0
 11
5.4028
 21
6.4284
 31
0
  0
LINE
  8
LAYER1
  6
CONTINUOUS
 62
     7
 10
5.0833
 20
6.2062
 30
0
 11
5.2917
 21
6.4284
 31
0
  0
LINE
  8
LAYER1
  6
CONTINUOUS
 62
     7
 10
5.3889
 20
5.845
 30
0
 11
5.6528
 21
6.1228
 31
0
  0
LINE
  8
LAYER1
  6
CONTINUOUS
 62
     7
 10
5.2917
 20
5.8589
 30
0
 11
5.6528
 21
6.22
 31
0
  0
LINE
  8
LAYER1
  6
CONTINUOUS
 62
     7
 10
5.2083
 20
5.8867
 30
0
 11
5.6111
 21
6.2895
 31
0
  0
LINE
  8
LAYER1
  6
CONTINUOUS
 62
     7
 10
5.1528
 20
5.9423
 30
0
 11
5.5694
 21
6.345
 31
0
  0
LINE
  8
LAYER1
  6
CONTINUOUS
 62
     7
 10
5.1111
 20
5.9978
 30
0
 11
5.5139
 21
6.4006
 31
0
  0
LINE
  8
LAYER1
  6
CONTINUOUS
 62
     7
 10
5.0833
 20
6.0812
 30
0
 11
5.4306
 21
6.4284
 31
0
  0
ENDBLK
  8
LAYER1
  0
BLOCK
  8
LAYER1
  2
Group30
 70
     0
 10
0
 20
0
 30
0
  0
LINE
  8
LAYER1
  6
CONTINUOUS
 62
     7
 10
3.6667
 20
8.1923
 30
0
 11
3.7083
 21
8.22
 31
0
  0
CIRCLE
  8
LAYER1
 10
5.3681
 20
6.1298
 30
0
 40
0.2986
  0
INSERT
  8
LAYER1
  2
Group29
 10
0
 20
0
 30
0
  0
ENDBLK
  8
LAYER1
  0
BLOCK
  8
LAYER1
  2
Group31
 70
     0
 10
0
 20
0
 30
0
  0
LINE
  8
LAYER1
  6
CONTINUOUS
 62
     7
 10
4.2083
 20
5.845
 30
0
 11
4.2083
 21
5.8589
 31
0
  0
LINE
  8
LAYER1
  6
CONTINUOUS
 62
     7
 10
4.0972
 20
5.845
 30
0
 11
4.2083
 21
5.9562
 31
0
  0
LINE
  8
LAYER1
  6
CONTINUOUS
 62
     7
 10
4
 20
5.845
 30
0
 11
4.2083
 21
6.0673
 31
0
  0
LINE
  8
LAYER1
  6
CONTINUOUS
 62
     7
 10
3.8889
 20
5.845
 30
0
 11
4.2083
 21
6.1784
 31
0
  0
LINE
  8
LAYER1
  6
CONTINUOUS
 62
     7
 10
3.7778
 20
5.845
 30
0
 11
4.2083
 21
6.2756
 31
0
  0
LINE
  8
LAYER1
  6
CONTINUOUS
 62
     7
 10
3.6806
 20
5.845
 30
0
 11
4.2083
 21
6.3867
 31
0
  0
LINE
  8
LAYER1
  6
CONTINUOUS
 62
     7
 10
3.625
 20
5.9006
 30
0
 11
4.1528
 21
6.4284
 31
0
  0
LINE
  8
LAYER1
  6
CONTINUOUS
 62
     7
 10
3.625
 20
6.0117
 30
0
 11
4.0417
 21
6.4284
 31
0
  0
LINE
  8
LAYER1
  6
CONTINUOUS
 62
     7
 10
3.625
 20
6.1228
 30
0
 11
3.9444
 21
6.4284
 31
0
  0
LINE
  8
LAYER1
  6
CONTINUOUS
 62
     7
 10
3.625
 20
6.22
 30
0
 11
3.8333
 21
6.4284
 31
0
  0
LINE
  8
LAYER1
  6
CONTINUOUS
 62
     7
 10
3.625
 20
6.3312
 30
0
 11
3.7222
 21
6.4284
 31
0
  0
LINE
  8
LAYER1
  6
CONTINUOUS
 62
     7
 10
4.125
 20
5.845
 30
0
 11
4.2083
 21
5.9284
 31
0
  0
LINE
  8
LAYER1
  6
CONTINUOUS
 62
     7
 10
4.0139
 20
5.845
 30
0
 11
4.2083
 21
6.0395
 31
0
  0
LINE
  8
LAYER1
  6
CONTINUOUS
 62
     7
 10
3.9167
 20
5.845
 30
0
 11
4.2083
 21
6.1506
 31
0
  0
LINE
  8
LAYER1
  6
CONTINUOUS
 62
     7
 10
3.8056
 20
5.845
 30
0
 11
4.2083
 21
6.2478
 31
0
  0
LINE
  8
LAYER1
  6
CONTINUOUS
 62
     7
 10
3.7083
 20
5.845
 30
0
 11
4.2083
 21
6.3589
 31
0
  0
LINE
  8
LAYER1
  6
CONTINUOUS
 62
     7
 10
3.625
 20
5.8867
 30
0
 11
4.1806
 21
6.4284
 31
0
  0
LINE
  8
LAYER1
  6
CONTINUOUS
 62
     7
 10
3.625
 20
5.9839
 30
0
 11
4.0694
 21
6.4284
 31
0
  0
LINE
  8
LAYER1
  6
CONTINUOUS
 62
     7
 10
3.625
 20
6.095
 30
0
 11
3.9722
 21
6.4284
 31
0
  0
LINE
  8
LAYER1
  6
CONTINUOUS
 62
     7
 10
3.625
 20
6.1923
 30
0
 11
3.8611
 21
6.4284
 31
0
  0
LINE
  8
LAYER1
  6
CONTINUOUS
 62
     7
 10
3.625
 20
6.3034
 30
0
 11
3.75
 21
6.4284
 31
0
  0
ENDBLK
  8
LAYER1
  0
BLOCK
  8
LAYER1
  2
Group32
 70
     0
 10
0
 20
0
 30
0
  0
LINE
  8
LAYER1
  6
CONTINUOUS
 62
     7
 10
5.0833
 20
6.1784
 30
0
 11
5.3333
 21
6.4284
 31
0
  0
POLYLINE
  8
LAYER1
  6
CONTINUOUS
 62
     7
 66
     1
 70
     0
 40
0.001
 41
0.001
  0
VERTEX
  8
LAYER1
 10
3.625
 20
6.4284
 30
0
 70
     0
  0
VERTEX
  8
LAYER1
 10
4.2222
 20
6.4284
 30
0
 70
     0
  0
VERTEX
  8
LAYER1
 10
4.2222
 20
5.8312
 30
0
 70
     0
  0
VERTEX
  8
LAYER1
 10
3.625
 20
5.8312
 30
0
 70
     0
  0
VERTEX
  8
LAYER1
 10
3.625
 20
6.4284
 30
0
 70
     0
  0
SEQEND
  0
INSERT
  8
LAYER1
  2
Group31
 10
0
 20
0
 30
0
  0
ENDBLK
  8
LAYER1
  0
BLOCK
  8
LAYER1
  2
Group33
 70
     0
 10
0
 20
0
 30
0
  0
LINE
  8
LAYER1
  6
CONTINUOUS
 62
     7
 10
4.2361
 20
4.2617
 30
0
 11
4.25
 21
4.2756
 31
0
  0
LINE
  8
LAYER1
  6
CONTINUOUS
 62
     7
 10
4.125
 20
4.2617
 30
0
 11
4.25
 21
4.3867
 31
0
  0
LINE
  8
LAYER1
  6
CONTINUOUS
 62
     7
 10
4.0278
 20
4.2617
 30
0
 11
4.25
 21
4.4978
 31
0
  0
LINE
  8
LAYER1
  6
CONTINUOUS
 62
     7
 10
3.9167
 20
4.2617
 30
0
 11
4.25
 21
4.595
 31
0
  0
LINE
  8
LAYER1
  6
CONTINUOUS
 62
     7
 10
3.8056
 20
4.2617
 30
0
 11
4.25
 21
4.7062
 31
0
  0
LINE
  8
LAYER1
  6
CONTINUOUS
 62
     7
 10
3.7083
 20
4.2617
 30
0
 11
4.25
 21
4.8173
 31
0
  0
LINE
  8
LAYER1
  6
CONTINUOUS
 62
     7
 10
3.5972
 20
4.2617
 30
0
 11
4.25
 21
4.9145
 31
0
  0
LINE
  8
LAYER1
  6
CONTINUOUS
 62
     7
 10
3.5833
 20
4.3589
 30
0
 11
4.1667
 21
4.9284
 31
0
  0
LINE
  8
LAYER1
  6
CONTINUOUS
 62
     7
 10
3.5833
 20
4.47
 30
0
 11
4.0556
 21
4.9284
 31
0
  0
LINE
  8
LAYER1
  6
CONTINUOUS
 62
     7
 10
3.5833
 20
4.5673
 30
0
 11
3.9444
 21
4.9284
 31
0
  0
LINE
  8
LAYER1
  6
CONTINUOUS
 62
     7
 10
3.5833
 20
4.6784
 30
0
 11
3.8472
 21
4.9284
 31
0
  0
LINE
  8
LAYER1
  6
CONTINUOUS
 62
     7
 10
3.5833
 20
4.7756
 30
0
 11
3.7361
 21
4.9284
 31
0
  0
LINE
  8
LAYER1
  6
CONTINUOUS
 62
     7
 10
3.5833
 20
4.8867
 30
0
 11
3.625
 21
4.9284
 31
0
  0
LINE
  8
LAYER1
  6
CONTINUOUS
 62
     7
 10
4.1528
 20
4.2617
 30
0
 11
4.25
 21
4.3589
 31
0
  0
LINE
  8
LAYER1
  6
CONTINUOUS
 62
     7
 10
4.0556
 20
4.2617
 30
0
 11
4.25
 21
4.47
 31
0
  0
LINE
  8
LAYER1
  6
CONTINUOUS
 62
     7
 10
3.9444
 20
4.2617
 30
0
 11
4.25
 21
4.5673
 31
0
  0
LINE
  8
LAYER1
  6
CONTINUOUS
 62
     7
 10
3.8333
 20
4.2617
 30
0
 11
4.25
 21
4.6784
 31
0
  0
LINE
  8
LAYER1
  6
CONTINUOUS
 62
     7
 10
3.7361
 20
4.2617
 30
0
 11
4.25
 21
4.7895
 31
0
  0
LINE
  8
LAYER1
  6
CONTINUOUS
 62
     7
 10
3.625
 20
4.2617
 30
0
 11
4.25
 21
4.8867
 31
0
  0
LINE
  8
LAYER1
  6
CONTINUOUS
 62
     7
 10
3.5833
 20
4.3312
 30
0
 11
4.1806
 21
4.9284
 31
0
  0
LINE
  8
LAYER1
  6
CONTINUOUS
 62
     7
 10
3.5833
 20
4.4423
 30
0
 11
4.0833
 21
4.9284
 31
0
  0
LINE
  8
LAYER1
  6
CONTINUOUS
 62
     7
 10
3.5833
 20
4.5395
 30
0
 11
3.9722
 21
4.9284
 31
0
  0
LINE
  8
LAYER1
  6
CONTINUOUS
 62
     7
 10
3.5833
 20
4.6506
 30
0
 11
3.875
 21
4.9284
 31
0
  0
LINE
  8
LAYER1
  6
CONTINUOUS
 62
     7
 10
3.5833
 20
4.7617
 30
0
 11
3.7639
 21
4.9284
 31
0
  0
ENDBLK
  8
LAYER1
  0
BLOCK
  8
LAYER1
  2
Group34
 70
     0
 10
0
 20
0
 30
0
  0
LINE
  8
LAYER1
  6
CONTINUOUS
 62
     7
 10
3.625
 20
6.4145
 30
0
 11
3.6528
 21
6.4284
 31
0
  0
POLYLINE
  8
LAYER1
  6
CONTINUOUS
 62
     7
 66
     1
 70
     0
 40
0.001
 41
0.001
  0
VERTEX
  8
LAYER1
 10
3.5833
 20
4.9284
 30
0
 70
     0
  0
VERTEX
  8
LAYER1
 10
4.2639
 20
4.9284
 30
0
 70
     0
  0
VERTEX
  8
LAYER1
 10
4.2639
 20
4.2478
 30
0
 70
     0
  0
VERTEX
  8
LAYER1
 10
3.5833
 20
4.2478
 30
0
 70
     0
  0
VERTEX
  8
LAYER1
 10
3.5833
 20
4.9284
 30
0
 70
     0
  0
SEQEND
  0
INSERT
  8
LAYER1
  2
Group33
 10
0
 20
0
 30
0
  0
ENDBLK
  8
LAYER1
  0
BLOCK
  8
LAYER1
  2
Group35
 70
     0
 10
0
 20
0
 30
0
  0
LINE
  8
LAYER1
  6
CONTINUOUS
 62
     7
 10
5.5278
 20
4.345
 30
0
 11
5.6528
 21
4.4839
 31
0
  0
LINE
  8
LAYER1
  6
CONTINUOUS
 62
     7
 10
5.375
 20
4.3034
 30
0
 11
5.6944
 21
4.6228
 31
0
  0
LINE
  8
LAYER1
  6
CONTINUOUS
 62
     7
 10
5.2778
 20
4.3173
 30
0
 11
5.6944
 21
4.72
 31
0
  0
LINE
  8
LAYER1
  6
CONTINUOUS
 62
     7
 10
5.2083
 20
4.345
 30
0
 11
5.6528
 21
4.8034
 31
0
  0
LINE
  8
LAYER1
  6
CONTINUOUS
 62
     7
 10
5.1389
 20
4.3867
 30
0
 11
5.6111
 21
4.8589
 31
0
  0
LINE
  8
LAYER1
  6
CONTINUOUS
 62
     7
 10
5.0972
 20
4.4423
 30
0
 11
5.5556
 21
4.9145
 31
0
  0
LINE
  8
LAYER1
  6
CONTINUOUS
 62
     7
 10
5.0556
 20
4.5117
 30
0
 11
5.4861
 21
4.9423
 31
0
  0
LINE
  8
LAYER1
  6
CONTINUOUS
 62
     7
 10
5.0417
 20
4.595
 30
0
 11
5.4028
 21
4.97
 31
0
  0
LINE
  8
LAYER1
  6
CONTINUOUS
 62
     7
 10
5.0417
 20
4.7062
 30
0
 11
5.2917
 21
4.97
 31
0
  0
LINE
  8
LAYER1
  6
CONTINUOUS
 62
     7
 10
5.4028
 20
4.3034
 30
0
 11
5.6944
 21
4.595
 31
0
  0
LINE
  8
LAYER1
  6
CONTINUOUS
 62
     7
 10
5.3056
 20
4.3173
 30
0
 11
5.6944
 21
4.7062
 31
0
  0
LINE
  8
LAYER1
  6
CONTINUOUS
 62
     7
 10
5.2222
 20
4.3312
 30
0
 11
5.6667
 21
4.7756
 31
0
  0
LINE
  8
LAYER1
  6
CONTINUOUS
 62
     7
 10
5.1528
 20
4.3728
 30
0
 11
5.625
 21
4.845
 31
0
  0
LINE
  8
LAYER1
  6
CONTINUOUS
 62
     7
 10
5.1111
 20
4.4284
 30
0
 11
5.5694
 21
4.9006
 31
0
  0
LINE
  8
LAYER1
  6
CONTINUOUS
 62
     7
 10
5.0694
 20
4.4978
 30
0
 11
5.5139
 21
4.9423
 31
0
  0
LINE
  8
LAYER1
  6
CONTINUOUS
 62
     7
 10
5.0417
 20
4.5812
 30
0
 11
5.4306
 21
4.97
 31
0
  0
ENDBLK
  8
LAYER1
  0
BLOCK
  8
LAYER1
  2
Group36
 70
     0
 10
0
 20
0
 30
0
  0
LINE
  8
LAYER1
  6
CONTINUOUS
 62
     7
 10
3.5833
 20
4.8589
 30
0
 11
3.6528
 21
4.9284
 31
0
  0
CIRCLE
  8
LAYER1
 10
5.3681
 20
4.6298
 30
0
 40
0.3403
  0
INSERT
  8
LAYER1
  2
Group35
 10
0
 20
0
 30
0
  0
ENDBLK
  8
LAYER1
  0
BLOCK
  8
LAYER1
  2
Group37
 70
     0
 10
0
 20
0
 30
0
  0
LINE
  8
LAYER1
  6
CONTINUOUS
 62
     7
 10
5.4583
 20
2.1089
 30
0
 11
5.7361
 21
2.3867
 31
0
  0
LINE
  8
LAYER1
  6
CONTINUOUS
 62
     7
 10
5.3333
 20
2.095
 30
0
 11
5.7361
 21
2.4978
 31
0
  0
LINE
  8
LAYER1
  6
CONTINUOUS
 62
     7
 10
5.25
 20
2.1228
 30
0
 11
5.7222
 21
2.595
 31
0
  0
LINE
  8
LAYER1
  6
CONTINUOUS
 62
     7
 10
5.1806
 20
2.1506
 30
0
 11
5.6944
 21
2.6645
 31
0
  0
LINE
  8
LAYER1
  6
CONTINUOUS
 62
     7
 10
5.1111
 20
2.1923
 30
0
 11
5.6389
 21
2.72
 31
0
  0
LINE
  8
LAYER1
  6
CONTINUOUS
 62
     7
 10
5.0694
 20
2.2478
 30
0
 11
5.5833
 21
2.7756
 31
0
  0
LINE
  8
LAYER1
  6
CONTINUOUS
 62
     7
 10
5.0278
 20
2.3173
 30
0
 11
5.5278
 21
2.8173
 31
0
  0
LINE
  8
LAYER1
  6
CONTINUOUS
 62
     7
 10
5
 20
2.4006
 30
0
 11
5.4444
 21
2.845
 31
0
  0
LINE
  8
LAYER1
  6
CONTINUOUS
 62
     7
 10
4.9861
 20
2.4978
 30
0
 11
5.3472
 21
2.845
 31
0
  0
LINE
  8
LAYER1
  6
CONTINUOUS
 62
     7
 10
5.0278
 20
2.6367
 30
0
 11
5.1944
 21
2.8034
 31
0
  0
LINE
  8
LAYER1
  6
CONTINUOUS
 62
     7
 10
5.4861
 20
2.1228
 30
0
 11
5.7222
 21
2.345
 31
0
  0
LINE
  8
LAYER1
  6
CONTINUOUS
 62
     7
 10
5.3611
 20
2.095
 30
0
 11
5.7361
 21
2.47
 31
0
  0
LINE
  8
LAYER1
  6
CONTINUOUS
 62
     7
 10
5.2639
 20
2.1089
 30
0
 11
5.7222
 21
2.5673
 31
0
  0
LINE
  8
LAYER1
  6
CONTINUOUS
 62
     7
 10
5.1944
 20
2.1367
 30
0
 11
5.6944
 21
2.6506
 31
0
  0
LINE
  8
LAYER1
  6
CONTINUOUS
 62
     7
 10
5.125
 20
2.1784
 30
0
 11
5.6528
 21
2.7062
 31
0
  0
LINE
  8
LAYER1
  6
CONTINUOUS
 62
     7
 10
5.0833
 20
2.2339
 30
0
 11
5.6111
 21
2.7617
 31
0
  0
LINE
  8
LAYER1
  6
CONTINUOUS
 62
     7
 10
5.0278
 20
2.3034
 30
0
 11
5.5417
 21
2.8034
 31
0
  0
LINE
  8
LAYER1
  6
CONTINUOUS
 62
     7
 10
5
 20
2.3728
 30
0
 11
5.4583
 21
2.8312
 31
0
  0
LINE
  8
LAYER1
  6
CONTINUOUS
 62
     7
 10
4.9861
 20
2.47
 30
0
 11
5.375
 21
2.845
 31
0
  0
ENDBLK
  8
LAYER1
  0
BLOCK
  8
LAYER1
  2
Group38
 70
     0
 10
0
 20
0
 30
0
  0
LINE
  8
LAYER1
  6
CONTINUOUS
 62
     7
 10
5.0417
 20
4.6784
 30
0
 11
5.3333
 21
4.97
 31
0
  0
CIRCLE
  8
LAYER1
 10
5.3681
 20
2.4631
 30
0
 40
0.3819
  0
INSERT
  8
LAYER1
  2
Group37
 10
0
 20
0
 30
0
  0
ENDBLK
  8
LAYER1
  0
BLOCK
  8
LAYER1
  2
Group39
 70
     0
 10
0
 20
0
 30
0
  0
LINE
  8
LAYER1
  6
CONTINUOUS
 62
     7
 10
4.1944
 20
2.0812
 30
0
 11
4.2917
 21
2.1784
 31
0
  0
LINE
  8
LAYER1
  6
CONTINUOUS
 62
     7
 10
4.0833
 20
2.0812
 30
0
 11
4.2917
 21
2.2895
 31
0
  0
LINE
  8
LAYER1
  6
CONTINUOUS
 62
     7
 10
3.9722
 20
2.0812
 30
0
 11
4.2917
 21
2.4006
 31
0
  0
LINE
  8
LAYER1
  6
CONTINUOUS
 62
     7
 10
3.875
 20
2.0812
 30
0
 11
4.2917
 21
2.4978
 31
0
  0
LINE
  8
LAYER1
  6
CONTINUOUS
 62
     7
 10
3.7639
 20
2.0812
 30
0
 11
4.2917
 21
2.6089
 31
0
  0
LINE
  8
LAYER1
  6
CONTINUOUS
 62
     7
 10
3.6528
 20
2.0812
 30
0
 11
4.2917
 21
2.72
 31
0
  0
LINE
  8
LAYER1
  6
CONTINUOUS
 62
     7
 10
3.5556
 20
2.0812
 30
0
 11
4.2917
 21
2.8173
 31
0
  0
LINE
  8
LAYER1
  6
CONTINUOUS
 62
     7
 10
3.5417
 20
2.1784
 30
0
 11
4.1944
 21
2.8312
 31
0
  0
LINE
  8
LAYER1
  6
CONTINUOUS
 62
     7
 10
3.5417
 20
2.2756
 30
0
 11
4.0833
 21
2.8312
 31
0
  0
LINE
  8
LAYER1
  6
CONTINUOUS
 62
     7
 10
3.5417
 20
2.3867
 30
0
 11
3.9861
 21
2.8312
 31
0
  0
LINE
  8
LAYER1
  6
CONTINUOUS
 62
     7
 10
3.5417
 20
2.4978
 30
0
 11
3.875
 21
2.8312
 31
0
  0
LINE
  8
LAYER1
  6
CONTINUOUS
 62
     7
 10
3.5417
 20
2.595
 30
0
 11
3.7778
 21
2.8312
 31
0
  0
LINE
  8
LAYER1
  6
CONTINUOUS
 62
     7
 10
3.5417
 20
2.7062
 30
0
 11
3.6667
 21
2.8312
 31
0
  0
LINE
  8
LAYER1
  6
CONTINUOUS
 62
     7
 10
3.5417
 20
2.8173
 30
0
 11
3.5556
 21
2.8312
 31
0
  0
LINE
  8
LAYER1
  6
CONTINUOUS
 62
     7
 10
4.2083
 20
2.0812
 30
0
 11
4.2917
 21
2.1506
 31
0
  0
LINE
  8
LAYER1
  6
CONTINUOUS
 62
     7
 10
4.1111
 20
2.0812
 30
0
 11
4.2917
 21
2.2617
 31
0
  0
LINE
  8
LAYER1
  6
CONTINUOUS
 62
     7
 10
4
 20
2.0812
 30
0
 11
4.2917
 21
2.3728
 31
0
  0
LINE
  8
LAYER1
  6
CONTINUOUS
 62
     7
 10
3.9028
 20
2.0812
 30
0
 11
4.2917
 21
2.47
 31
0
  0
LINE
  8
LAYER1
  6
CONTINUOUS
 62
     7
 10
3.7917
 20
2.0812
 30
0
 11
4.2917
 21
2.5812
 31
0
  0
LINE
  8
LAYER1
  6
CONTINUOUS
 62
     7
 10
3.6806
 20
2.0812
 30
0
 11
4.2917
 21
2.6923
 31
0
  0
LINE
  8
LAYER1
  6
CONTINUOUS
 62
     7
 10
3.5833
 20
2.0812
 30
0
 11
4.2917
 21
2.7895
 31
0
  0
LINE
  8
LAYER1
  6
CONTINUOUS
 62
     7
 10
3.5417
 20
2.1506
 30
0
 11
4.2222
 21
2.8312
 31
0
  0
LINE
  8
LAYER1
  6
CONTINUOUS
 62
     7
 10
3.5417
 20
2.2617
 30
0
 11
4.1111
 21
2.8312
 31
0
  0
LINE
  8
LAYER1
  6
CONTINUOUS
 62
     7
 10
3.5417
 20
2.3589
 30
0
 11
4.0139
 21
2.8312
 31
0
  0
LINE
  8
LAYER1
  6
CONTINUOUS
 62
     7
 10
3.5417
 20
2.47
 30
0
 11
3.9028
 21
2.8312
 31
0
  0
LINE
  8
LAYER1
  6
CONTINUOUS
 62
     7
 10
3.5417
 20
2.5673
 30
0
 11
3.7917
 21
2.8312
 31
0
  0
LINE
  8
LAYER1
  6
CONTINUOUS
 62
     7
 10
3.5417
 20
2.6784
 30
0
 11
3.6944
 21
2.8312
 31
0
  0
ENDBLK
  8
LAYER1
  0
BLOCK
  8
LAYER1
  2
Group40
 70
     0
 10
0
 20
0
 30
0
  0
LINE
  8
LAYER1
  6
CONTINUOUS
 62
     7
 10
5.0139
 20
2.595
 30
0
 11
5.25
 21
2.8312
 31
0
  0
POLYLINE
  8
LAYER1
  6
CONTINUOUS
 62
     7
 66
     1
 70
     0
 40
0.001
 41
0.001
  0
VERTEX
  8
LAYER1
 10
3.5417
 20
2.8312
 30
0
 70
     0
  0
VERTEX
  8
LAYER1
 10
4.3056
 20
2.8312
 30
0
 70
     0
  0
VERTEX
  8
LAYER1
 10
4.3056
 20
2.0673
 30
0
 70
     0
  0
VERTEX
  8
LAYER1
 10
3.5417
 20
2.0673
 30
0
 70
     0
  0
VERTEX
  8
LAYER1
 10
3.5417
 20
2.8312
 30
0
 70
     0
  0
SEQEND
  0
INSERT
  8
LAYER1
  2
Group39
 10
0
 20
0
 30
0
  0
ENDBLK
  8
LAYER1
  0
BLOCK
  8
LAYER1
  2
Group41
 70
     0
 10
0
 20
0
 30
0
  0
LINE
  8
LAYER1
  6
CONTINUOUS
 62
     7
 10
12.6667
 20
7.47
 30
0
 11
12.9583
 21
7.7478
 31
0
  0
LINE
  8
LAYER1
  6
CONTINUOUS
 62
     7
 10
12.5556
 20
7.4562
 30
0
 11
12.9722
 21
7.8728
 31
0
  0
LINE
  8
LAYER1
  6
CONTINUOUS
 62
     7
 10
12.4583
 20
7.47
 30
0
 11
12.9583
 21
7.97
 31
0
  0
LINE
  8
LAYER1
  6
CONTINUOUS
 62
     7
 10
12.375
 20
7.4978
 30
0
 11
12.9306
 21
8.0395
 31
0
  0
LINE
  8
LAYER1
  6
CONTINUOUS
 62
     7
 10
12.3056
 20
7.5256
 30
0
 11
12.8889
 21
8.1089
 31
0
  0
LINE
  8
LAYER1
  6
CONTINUOUS
 62
     7
 10
12.25
 20
7.5812
 30
0
 11
12.8472
 21
8.1645
 31
0
  0
LINE
  8
LAYER1
  6
CONTINUOUS
 62
     7
 10
12.2083
 20
7.6367
 30
0
 11
12.7778
 21
8.22
 31
0
  0
LINE
  8
LAYER1
  6
CONTINUOUS
 62
     7
 10
12.1667
 20
7.7062
 30
0
 11
12.7083
 21
8.2478
 31
0
  0
LINE
  8
LAYER1
  6
CONTINUOUS
 62
     7
 10
12.1389
 20
7.7895
 30
0
 11
12.6389
 21
8.2756
 31
0
  0
LINE
  8
LAYER1
  6
CONTINUOUS
 62
     7
 10
12.1389
 20
7.8867
 30
0
 11
12.5278
 21
8.2895
 31
0
  0
LINE
  8
LAYER1
  6
CONTINUOUS
 62
     7
 10
12.1667
 20
8.0256
 30
0
 11
12.3889
 21
8.2478
 31
0
  0
LINE
  8
LAYER1
  6
CONTINUOUS
 62
     7
 10
12.7083
 20
7.4839
 30
0
 11
12.9444
 21
7.7062
 31
0
  0
LINE
  8
LAYER1
  6
CONTINUOUS
 62
     7
 10
12.5694
 20
7.4562
 30
0
 11
12.9722
 21
7.845
 31
0
  0
LINE
  8
LAYER1
  6
CONTINUOUS
 62
     7
 10
12.4722
 20
7.4562
 30
0
 11
12.9583
 21
7.9423
 31
0
  0
LINE
  8
LAYER1
  6
CONTINUOUS
 62
     7
 10
12.3889
 20
7.4839
 30
0
 11
12.9444
 21
8.0256
 31
0
  0
LINE
  8
LAYER1
  6
CONTINUOUS
 62
     7
 10
12.3194
 20
7.5256
 30
0
 11
12.9028
 21
8.095
 31
0
  0
LINE
  8
LAYER1
  6
CONTINUOUS
 62
     7
 10
12.2639
 20
7.5673
 30
0
 11
12.8611
 21
8.1506
 31
0
  0
LINE
  8
LAYER1
  6
CONTINUOUS
 62
     7
 10
12.2222
 20
7.6228
 30
0
 11
12.8056
 21
8.2062
 31
0
  0
LINE
  8
LAYER1
  6
CONTINUOUS
 62
     7
 10
12.1806
 20
7.6923
 30
0
 11
12.7361
 21
8.2478
 31
0
  0
LINE
  8
LAYER1
  6
CONTINUOUS
 62
     7
 10
12.1528
 20
7.7617
 30
0
 11
12.6528
 21
8.2756
 31
0
  0
LINE
  8
LAYER1
  6
CONTINUOUS
 62
     7
 10
12.1389
 20
7.8589
 30
0
 11
12.5556
 21
8.2895
 31
0
  0
ENDBLK
  8
LAYER1
  0
BLOCK
  8
LAYER1
  2
Group42
 70
     0
 10
0
 20
0
 30
0
  0
LINE
  8
LAYER1
  6
CONTINUOUS
 62
     7
 10
3.5417
 20
2.7895
 30
0
 11
3.5833
 21
2.8312
 31
0
  0
CIRCLE
  8
LAYER1
 10
12.5625
 20
7.8659
 30
0
 40
0.4236
  0
INSERT
  8
LAYER1
  2
Group41
 10
0
 20
0
 30
0
  0
ENDBLK
  8
LAYER1
  0
BLOCK
  8
LAYER1
  2
Group43
 70
     0
 10
0
 20
0
 30
0
  0
LINE
  8
LAYER1
  6
CONTINUOUS
 62
     7
 10
11.4028
 20
7.4284
 30
0
 11
11.4306
 21
7.4562
 31
0
  0
LINE
  8
LAYER1
  6
CONTINUOUS
 62
     7
 10
11.2917
 20
7.4284
 30
0
 11
11.4306
 21
7.5673
 31
0
  0
LINE
  8
LAYER1
  6
CONTINUOUS
 62
     7
 10
11.1806
 20
7.4284
 30
0
 11
11.4306
 21
7.6784
 31
0
  0
LINE
  8
LAYER1
  6
CONTINUOUS
 62
     7
 10
11.0833
 20
7.4284
 30
0
 11
11.4306
 21
7.7756
 31
0
  0
LINE
  8
LAYER1
  6
CONTINUOUS
 62
     7
 10
10.9722
 20
7.4284
 30
0
 11
11.4306
 21
7.8867
 31
0
  0
LINE
  8
LAYER1
  6
CONTINUOUS
 62
     7
 10
10.8611
 20
7.4284
 30
0
 11
11.4306
 21
7.9978
 31
0
  0
LINE
  8
LAYER1
  6
CONTINUOUS
 62
     7
 10
10.7639
 20
7.4284
 30
0
 11
11.4306
 21
8.095
 31
0
  0
LINE
  8
LAYER1
  6
CONTINUOUS
 62
     7
 10
10.6528
 20
7.4284
 30
0
 11
11.4306
 21
8.2062
 31
0
  0
LINE
  8
LAYER1
  6
CONTINUOUS
 62
     7
 10
10.5972
 20
7.4839
 30
0
 11
11.3889
 21
8.2617
 31
0
  0
LINE
  8
LAYER1
  6
CONTINUOUS
 62
     7
 10
10.5972
 20
7.5812
 30
0
 11
11.2778
 21
8.2617
 31
0
  0
LINE
  8
LAYER1
  6
CONTINUOUS
 62
     7
 10
10.5972
 20
7.6923
 30
0
 11
11.1667
 21
8.2617
 31
0
  0
LINE
  8
LAYER1
  6
CONTINUOUS
 62
     7
 10
10.5972
 20
7.7895
 30
0
 11
11.0694
 21
8.2617
 31
0
  0
LINE
  8
LAYER1
  6
CONTINUOUS
 62
     7
 10
10.5972
 20
7.9006
 30
0
 11
10.9583
 21
8.2617
 31
0
  0
LINE
  8
LAYER1
  6
CONTINUOUS
 62
     7
 10
10.5972
 20
8.0117
 30
0
 11
10.8472
 21
8.2617
 31
0
  0
LINE
  8
LAYER1
  6
CONTINUOUS
 62
     7
 10
10.5972
 20
8.1089
 30
0
 11
10.75
 21
8.2617
 31
0
  0
LINE
  8
LAYER1
  6
CONTINUOUS
 62
     7
 10
10.5972
 20
8.22
 30
0
 11
10.6389
 21
8.2617
 31
0
  0
LINE
  8
LAYER1
  6
CONTINUOUS
 62
     7
 10
11.4306
 20
7.4284
 30
0
 11
11.4306
 21
7.4423
 31
0
  0
LINE
  8
LAYER1
  6
CONTINUOUS
 62
     7
 10
11.3194
 20
7.4284
 30
0
 11
11.4306
 21
7.5395
 31
0
  0
LINE
  8
LAYER1
  6
CONTINUOUS
 62
     7
 10
11.2083
 20
7.4284
 30
0
 11
11.4306
 21
7.6506
 31
0
  0
LINE
  8
LAYER1
  6
CONTINUOUS
 62
     7
 10
11.1111
 20
7.4284
 30
0
 11
11.4306
 21
7.7478
 31
0
  0
LINE
  8
LAYER1
  6
CONTINUOUS
 62
     7
 10
11
 20
7.4284
 30
0
 11
11.4306
 21
7.8589
 31
0
  0
LINE
  8
LAYER1
  6
CONTINUOUS
 62
     7
 10
10.8889
 20
7.4284
 30
0
 11
11.4306
 21
7.97
 31
0
  0
LINE
  8
LAYER1
  6
CONTINUOUS
 62
     7
 10
10.7917
 20
7.4284
 30
0
 11
11.4306
 21
8.0673
 31
0
  0
LINE
  8
LAYER1
  6
CONTINUOUS
 62
     7
 10
10.6806
 20
7.4284
 30
0
 11
11.4306
 21
8.1784
 31
0
  0
LINE
  8
LAYER1
  6
CONTINUOUS
 62
     7
 10
10.5972
 20
7.4562
 30
0
 11
11.4028
 21
8.2617
 31
0
  0
LINE
  8
LAYER1
  6
CONTINUOUS
 62
     7
 10
10.5972
 20
7.5534
 30
0
 11
11.3056
 21
8.2617
 31
0
  0
LINE
  8
LAYER1
  6
CONTINUOUS
 62
     7
 10
10.5972
 20
7.6645
 30
0
 11
11.1944
 21
8.2617
 31
0
  0
LINE
  8
LAYER1
  6
CONTINUOUS
 62
     7
 10
10.5972
 20
7.7756
 30
0
 11
11.0972
 21
8.2617
 31
0
  0
LINE
  8
LAYER1
  6
CONTINUOUS
 62
     7
 10
10.5972
 20
7.8728
 30
0
 11
10.9861
 21
8.2617
 31
0
  0
LINE
  8
LAYER1
  6
CONTINUOUS
 62
     7
 10
10.5972
 20
7.9839
 30
0
 11
10.875
 21
8.2617
 31
0
  0
LINE
  8
LAYER1
  6
CONTINUOUS
 62
     7
 10
10.5972
 20
8.0812
 30
0
 11
10.7778
 21
8.2617
 31
0
  0
ENDBLK
  8
LAYER1
  0
BLOCK
  8
LAYER1
  2
Group44
 70
     0
 10
0
 20
0
 30
0
  0
LINE
  8
LAYER1
  6
CONTINUOUS
 62
     7
 10
12.1528
 20
7.9839
 30
0
 11
12.4306
 21
8.2617
 31
0
  0
POLYLINE
  8
LAYER1
  6
CONTINUOUS
 62
     7
 66
     1
 70
     0
 40
0.001
 41
0.001
  0
VERTEX
  8
LAYER1
 10
10.5972
 20
8.2617
 30
0
 70
     0
  0
VERTEX
  8
LAYER1
 10
11.4444
 20
8.2617
 30
0
 70
     0
  0
VERTEX
  8
LAYER1
 10
11.4444
 20
7.4145
 30
0
 70
     0
  0
VERTEX
  8
LAYER1
 10
10.5972
 20
7.4145
 30
0
 70
     0
  0
VERTEX
  8
LAYER1
 10
10.5972
 20
8.2617
 30
0
 70
     0
  0
SEQEND
  0
INSERT
  8
LAYER1
  2
Group43
 10
0
 20
0
 30
0
  0
ENDBLK
  8
LAYER1
  0
BLOCK
  8
LAYER1
  2
Group45
 70
     0
 10
0
 20
0
 30
0
  0
LINE
  8
LAYER1
  6
CONTINUOUS
 62
     7
 10
11.375
 20
5.3034
 30
0
 11
11.4722
 21
5.4006
 31
0
  0
LINE
  8
LAYER1
  6
CONTINUOUS
 62
     7
 10
11.2639
 20
5.3034
 30
0
 11
11.4722
 21
5.5117
 31
0
  0
LINE
  8
LAYER1
  6
CONTINUOUS
 62
     7
 10
11.1528
 20
5.3034
 30
0
 11
11.4722
 21
5.6228
 31
0
  0
LINE
  8
LAYER1
  6
CONTINUOUS
 62
     7
 10
11.0556
 20
5.3034
 30
0
 11
11.4722
 21
5.72
 31
0
  0
LINE
  8
LAYER1
  6
CONTINUOUS
 62
     7
 10
10.9444
 20
5.3034
 30
0
 11
11.4722
 21
5.8312
 31
0
  0
LINE
  8
LAYER1
  6
CONTINUOUS
 62
     7
 10
10.8333
 20
5.3034
 30
0
 11
11.4722
 21
5.9423
 31
0
  0
LINE
  8
LAYER1
  6
CONTINUOUS
 62
     7
 10
10.7361
 20
5.3034
 30
0
 11
11.4722
 21
6.0395
 31
0
  0
LINE
  8
LAYER1
  6
CONTINUOUS
 62
     7
 10
10.625
 20
5.3034
 30
0
 11
11.4722
 21
6.1506
 31
0
  0
LINE
  8
LAYER1
  6
CONTINUOUS
 62
     7
 10
10.5556
 20
5.345
 30
0
 11
11.4306
 21
6.22
 31
0
  0
LINE
  8
LAYER1
  6
CONTINUOUS
 62
     7
 10
10.5556
 20
5.4423
 30
0
 11
11.3333
 21
6.22
 31
0
  0
LINE
  8
LAYER1
  6
CONTINUOUS
 62
     7
 10
10.5556
 20
5.5534
 30
0
 11
11.2222
 21
6.22
 31
0
  0
LINE
  8
LAYER1
  6
CONTINUOUS
 62
     7
 10
10.5556
 20
5.6506
 30
0
 11
11.125
 21
6.22
 31
0
  0
LINE
  8
LAYER1
  6
CONTINUOUS
 62
     7
 10
10.5556
 20
5.7617
 30
0
 11
11.0139
 21
6.22
 31
0
  0
LINE
  8
LAYER1
  6
CONTINUOUS
 62
     7
 10
10.5556
 20
5.8728
 30
0
 11
10.9028
 21
6.22
 31
0
  0
LINE
  8
LAYER1
  6
CONTINUOUS
 62
     7
 10
10.5556
 20
5.97
 30
0
 11
10.8056
 21
6.22
 31
0
  0
LINE
  8
LAYER1
  6
CONTINUOUS
 62
     7
 10
10.5556
 20
6.0812
 30
0
 11
10.6944
 21
6.22
 31
0
  0
LINE
  8
LAYER1
  6
CONTINUOUS
 62
     7
 10
10.5556
 20
6.1923
 30
0
 11
10.5833
 21
6.22
 31
0
  0
LINE
  8
LAYER1
  6
CONTINUOUS
 62
     7
 10
11.4028
 20
5.3034
 30
0
 11
11.4722
 21
5.3867
 31
0
  0
LINE
  8
LAYER1
  6
CONTINUOUS
 62
     7
 10
11.2917
 20
5.3034
 30
0
 11
11.4722
 21
5.4839
 31
0
  0
LINE
  8
LAYER1
  6
CONTINUOUS
 62
     7
 10
11.1806
 20
5.3034
 30
0
 11
11.4722
 21
5.595
 31
0
  0
LINE
  8
LAYER1
  6
CONTINUOUS
 62
     7
 10
11.0833
 20
5.3034
 30
0
 11
11.4722
 21
5.6923
 31
0
  0
LINE
  8
LAYER1
  6
CONTINUOUS
 62
     7
 10
10.9722
 20
5.3034
 30
0
 11
11.4722
 21
5.8034
 31
0
  0
LINE
  8
LAYER1
  6
CONTINUOUS
 62
     7
 10
10.8611
 20
5.3034
 30
0
 11
11.4722
 21
5.9145
 31
0
  0
LINE
  8
LAYER1
  6
CONTINUOUS
 62
     7
 10
10.7639
 20
5.3034
 30
0
 11
11.4722
 21
6.0117
 31
0
  0
LINE
  8
LAYER1
  6
CONTINUOUS
 62
     7
 10
10.6528
 20
5.3034
 30
0
 11
11.4722
 21
6.1228
 31
0
  0
LINE
  8
LAYER1
  6
CONTINUOUS
 62
     7
 10
10.5556
 20
5.3173
 30
0
 11
11.4583
 21
6.22
 31
0
  0
LINE
  8
LAYER1
  6
CONTINUOUS
 62
     7
 10
10.5556
 20
5.4145
 30
0
 11
11.3611
 21
6.22
 31
0
  0
LINE
  8
LAYER1
  6
CONTINUOUS
 62
     7
 10
10.5556
 20
5.5256
 30
0
 11
11.25
 21
6.22
 31
0
  0
LINE
  8
LAYER1
  6
CONTINUOUS
 62
     7
 10
10.5556
 20
5.6367
 30
0
 11
11.1389
 21
6.22
 31
0
  0
LINE
  8
LAYER1
  6
CONTINUOUS
 62
     7
 10
10.5556
 20
5.7339
 30
0
 11
11.0417
 21
6.22
 31
0
  0
LINE
  8
LAYER1
  6
CONTINUOUS
 62
     7
 10
10.5556
 20
5.845
 30
0
 11
10.9306
 21
6.22
 31
0
  0
LINE
  8
LAYER1
  6
CONTINUOUS
 62
     7
 10
10.5556
 20
5.9423
 30
0
 11
10.8333
 21
6.22
 31
0
  0
LINE
  8
LAYER1
  6
CONTINUOUS
 62
     7
 10
10.5556
 20
6.0534
 30
0
 11
10.7222
 21
6.22
 31
0
  0
ENDBLK
  8
LAYER1
  0
BLOCK
  8
LAYER1
  2
Group46
 70
     0
 10
0
 20
0
 30
0
  0
LINE
  8
LAYER1
  6
CONTINUOUS
 62
     7
 10
10.5972
 20
8.1923
 30
0
 11
10.6667
 21
8.2617
 31
0
  0
POLYLINE
  8
LAYER1
  6
CONTINUOUS
 62
     7
 66
     1
 70
     0
 40
0.001
 41
0.001
  0
VERTEX
  8
LAYER1
 10
10.5556
 20
6.22
 30
0
 70
     0
  0
VERTEX
  8
LAYER1
 10
11.4861
 20
6.22
 30
0
 70
     0
  0
VERTEX
  8
LAYER1
 10
11.4861
 20
5.2895
 30
0
 70
     0
  0
VERTEX
  8
LAYER1
 10
10.5556
 20
5.2895
 30
0
 70
     0
  0
VERTEX
  8
LAYER1
 10
10.5556
 20
6.22
 30
0
 70
     0
  0
SEQEND
  0
INSERT
  8
LAYER1
  2
Group45
 10
0
 20
0
 30
0
  0
ENDBLK
  8
LAYER1
  0
BLOCK
  8
LAYER1
  2
Group47
 70
     0
 10
0
 20
0
 30
0
  0
LINE
  8
LAYER1
  6
CONTINUOUS
 62
     7
 10
12.7361
 20
5.3589
 30
0
 11
12.9722
 21
5.595
 31
0
  0
LINE
  8
LAYER1
  6
CONTINUOUS
 62
     7
 10
12.5972
 20
5.3312
 30
0
 11
13.0139
 21
5.7478
 31
0
  0
LINE
  8
LAYER1
  6
CONTINUOUS
 62
     7
 10
12.4861
 20
5.3312
 30
0
 11
13.0139
 21
5.845
 31
0
  0
LINE
  8
LAYER1
  6
CONTINUOUS
 62
     7
 10
12.4028
 20
5.345
 30
0
 11
12.9861
 21
5.9284
 31
0
  0
LINE
  8
LAYER1
  6
CONTINUOUS
 62
     7
 10
12.3333
 20
5.3867
 30
0
 11
12.9583
 21
6.0117
 31
0
  0
LINE
  8
LAYER1
  6
CONTINUOUS
 62
     7
 10
12.2639
 20
5.4284
 30
0
 11
12.9167
 21
6.0673
 31
0
  0
LINE
  8
LAYER1
  6
CONTINUOUS
 62
     7
 10
12.2083
 20
5.47
 30
0
 11
12.8611
 21
6.1228
 31
0
  0
LINE
  8
LAYER1
  6
CONTINUOUS
 62
     7
 10
12.1667
 20
5.5395
 30
0
 11
12.8056
 21
6.1645
 31
0
  0
LINE
  8
LAYER1
  6
CONTINUOUS
 62
     7
 10
12.1389
 20
5.6089
 30
0
 11
12.7361
 21
6.2062
 31
0
  0
LINE
  8
LAYER1
  6
CONTINUOUS
 62
     7
 10
12.1111
 20
5.6923
 30
0
 11
12.6528
 21
6.2339
 31
0
  0
LINE
  8
LAYER1
  6
CONTINUOUS
 62
     7
 10
12.0972
 20
5.7756
 30
0
 11
12.5556
 21
6.2478
 31
0
  0
LINE
  8
LAYER1
  6
CONTINUOUS
 62
     7
 10
12.1111
 20
5.9006
 30
0
 11
12.4306
 21
6.22
 31
0
  0
LINE
  8
LAYER1
  6
CONTINUOUS
 62
     7
 10
12.7917
 20
5.4006
 30
0
 11
12.9444
 21
5.5395
 31
0
  0
LINE
  8
LAYER1
  6
CONTINUOUS
 62
     7
 10
12.625
 20
5.3312
 30
0
 11
13.0139
 21
5.7062
 31
0
  0
LINE
  8
LAYER1
  6
CONTINUOUS
 62
     7
 10
12.5139
 20
5.3312
 30
0
 11
13.0139
 21
5.8173
 31
0
  0
LINE
  8
LAYER1
  6
CONTINUOUS
 62
     7
 10
12.4306
 20
5.345
 30
0
 11
13
 21
5.9145
 31
0
  0
LINE
  8
LAYER1
  6
CONTINUOUS
 62
     7
 10
12.3472
 20
5.3728
 30
0
 11
12.9722
 21
5.9839
 31
0
  0
LINE
  8
LAYER1
  6
CONTINUOUS
 62
     7
 10
12.2917
 20
5.4145
 30
0
 11
12.9306
 21
6.0534
 31
0
  0
LINE
  8
LAYER1
  6
CONTINUOUS
 62
     7
 10
12.2222
 20
5.4562
 30
0
 11
12.875
 21
6.1089
 31
0
  0
LINE
  8
LAYER1
  6
CONTINUOUS
 62
     7
 10
12.1806
 20
5.5256
 30
0
 11
12.8194
 21
6.1645
 31
0
  0
LINE
  8
LAYER1
  6
CONTINUOUS
 62
     7
 10
12.1389
 20
5.5812
 30
0
 11
12.75
 21
6.1923
 31
0
  0
LINE
  8
LAYER1
  6
CONTINUOUS
 62
     7
 10
12.1111
 20
5.6645
 30
0
 11
12.6806
 21
6.2339
 31
0
  0
LINE
  8
LAYER1
  6
CONTINUOUS
 62
     7
 10
12.0972
 20
5.7617
 30
0
 11
12.5833
 21
6.2478
 31
0
  0
LINE
  8
LAYER1
  6
CONTINUOUS
 62
     7
 10
12.1111
 20
5.8728
 30
0
 11
12.4722
 21
6.2339
 31
0
  0
ENDBLK
  8
LAYER1
  0
BLOCK
  8
LAYER1
  2
Group48
 70
     0
 10
0
 20
0
 30
0
  0
LINE
  8
LAYER1
  6
CONTINUOUS
 62
     7
 10
10.5556
 20
6.1645
 30
0
 11
10.6111
 21
6.22
 31
0
  0
CIRCLE
  8
LAYER1
 10
12.5625
 20
5.7825
 30
0
 40
0.4653
  0
INSERT
  8
LAYER1
  2
Group47
 10
0
 20
0
 30
0
  0
ENDBLK
  8
LAYER1
  0
BLOCK
  8
LAYER1
  2
Group49
 70
     0
 10
0
 20
0
 30
0
  0
LINE
  8
LAYER1
  6
CONTINUOUS
 62
     7
 10
11.4444
 20
2.97
 30
0
 11
11.5139
 21
3.0534
 31
0
  0
LINE
  8
LAYER1
  6
CONTINUOUS
 62
     7
 10
11.3333
 20
2.97
 30
0
 11
11.5139
 21
3.1506
 31
0
  0
LINE
  8
LAYER1
  6
CONTINUOUS
 62
     7
 10
11.2222
 20
2.97
 30
0
 11
11.5139
 21
3.2617
 31
0
  0
LINE
  8
LAYER1
  6
CONTINUOUS
 62
     7
 10
11.125
 20
2.97
 30
0
 11
11.5139
 21
3.3589
 31
0
  0
LINE
  8
LAYER1
  6
CONTINUOUS
 62
     7
 10
11.0139
 20
2.97
 30
0
 11
11.5139
 21
3.47
 31
0
  0
LINE
  8
LAYER1
  6
CONTINUOUS
 62
     7
 10
10.9028
 20
2.97
 30
0
 11
11.5139
 21
3.5812
 31
0
  0
LINE
  8
LAYER1
  6
CONTINUOUS
 62
     7
 10
10.8056
 20
2.97
 30
0
 11
11.5139
 21
3.6784
 31
0
  0
LINE
  8
LAYER1
  6
CONTINUOUS
 62
     7
 10
10.6944
 20
2.97
 30
0
 11
11.5139
 21
3.7895
 31
0
  0
LINE
  8
LAYER1
  6
CONTINUOUS
 62
     7
 10
10.5833
 20
2.97
 30
0
 11
11.5139
 21
3.9006
 31
0
  0
LINE
  8
LAYER1
  6
CONTINUOUS
 62
     7
 10
10.5139
 20
2.9978
 30
0
 11
11.4861
 21
3.97
 31
0
  0
LINE
  8
LAYER1
  6
CONTINUOUS
 62
     7
 10
10.5139
 20
3.1089
 30
0
 11
11.375
 21
3.97
 31
0
  0
LINE
  8
LAYER1
  6
CONTINUOUS
 62
     7
 10
10.5139
 20
3.22
 30
0
 11
11.2778
 21
3.97
 31
0
  0
LINE
  8
LAYER1
  6
CONTINUOUS
 62
     7
 10
10.5139
 20
3.3173
 30
0
 11
11.1667
 21
3.97
 31
0
  0
LINE
  8
LAYER1
  6
CONTINUOUS
 62
     7
 10
10.5139
 20
3.4284
 30
0
 11
11.0556
 21
3.97
 31
0
  0
LINE
  8
LAYER1
  6
CONTINUOUS
 62
     7
 10
10.5139
 20
3.5256
 30
0
 11
10.9583
 21
3.97
 31
0
  0
LINE
  8
LAYER1
  6
CONTINUOUS
 62
     7
 10
10.5139
 20
3.6367
 30
0
 11
10.8472
 21
3.97
 31
0
  0
LINE
  8
LAYER1
  6
CONTINUOUS
 62
     7
 10
10.5139
 20
3.7478
 30
0
 11
10.7361
 21
3.97
 31
0
  0
LINE
  8
LAYER1
  6
CONTINUOUS
 62
     7
 10
10.5139
 20
3.845
 30
0
 11
10.6389
 21
3.97
 31
0
  0
LINE
  8
LAYER1
  6
CONTINUOUS
 62
     7
 10
10.5139
 20
3.9562
 30
0
 11
10.5278
 21
3.97
 31
0
  0
LINE
  8
LAYER1
  6
CONTINUOUS
 62
     7
 10
11.4583
 20
2.97
 30
0
 11
11.5139
 21
3.0256
 31
0
  0
LINE
  8
LAYER1
  6
CONTINUOUS
 62
     7
 10
11.3611
 20
2.97
 30
0
 11
11.5139
 21
3.1228
 31
0
  0
LINE
  8
LAYER1
  6
CONTINUOUS
 62
     7
 10
11.25
 20
2.97
 30
0
 11
11.5139
 21
3.2339
 31
0
  0
LINE
  8
LAYER1
  6
CONTINUOUS
 62
     7
 10
11.1528
 20
2.97
 30
0
 11
11.5139
 21
3.345
 31
0
  0
LINE
  8
LAYER1
  6
CONTINUOUS
 62
     7
 10
11.0417
 20
2.97
 30
0
 11
11.5139
 21
3.4423
 31
0
  0
LINE
  8
LAYER1
  6
CONTINUOUS
 62
     7
 10
10.9306
 20
2.97
 30
0
 11
11.5139
 21
3.5534
 31
0
  0
LINE
  8
LAYER1
  6
CONTINUOUS
 62
     7
 10
10.8333
 20
2.97
 30
0
 11
11.5139
 21
3.6506
 31
0
  0
LINE
  8
LAYER1
  6
CONTINUOUS
 62
     7
 10
10.7222
 20
2.97
 30
0
 11
11.5139
 21
3.7617
 31
0
  0
LINE
  8
LAYER1
  6
CONTINUOUS
 62
     7
 10
10.6111
 20
2.97
 30
0
 11
11.5139
 21
3.8728
 31
0
  0
LINE
  8
LAYER1
  6
CONTINUOUS
 62
     7
 10
10.5139
 20
2.97
 30
0
 11
11.5139
 21
3.97
 31
0
  0
LINE
  8
LAYER1
  6
CONTINUOUS
 62
     7
 10
10.5139
 20
3.0812
 30
0
 11
11.4028
 21
3.97
 31
0
  0
LINE
  8
LAYER1
  6
CONTINUOUS
 62
     7
 10
10.5139
 20
3.1923
 30
0
 11
11.2917
 21
3.97
 31
0
  0
LINE
  8
LAYER1
  6
CONTINUOUS
 62
     7
 10
10.5139
 20
3.2895
 30
0
 11
11.1944
 21
3.97
 31
0
  0
LINE
  8
LAYER1
  6
CONTINUOUS
 62
     7
 10
10.5139
 20
3.4006
 30
0
 11
11.0833
 21
3.97
 31
0
  0
LINE
  8
LAYER1
  6
CONTINUOUS
 62
     7
 10
10.5139
 20
3.5117
 30
0
 11
10.9861
 21
3.97
 31
0
  0
LINE
  8
LAYER1
  6
CONTINUOUS
 62
     7
 10
10.5139
 20
3.6089
 30
0
 11
10.875
 21
3.97
 31
0
  0
LINE
  8
LAYER1
  6
CONTINUOUS
 62
     7
 10
10.5139
 20
3.72
 30
0
 11
10.7639
 21
3.97
 31
0
  0
LINE
  8
LAYER1
  6
CONTINUOUS
 62
     7
 10
10.5139
 20
3.8173
 30
0
 11
10.6667
 21
3.97
 31
0
  0
ENDBLK
  8
LAYER1
  0
BLOCK
  8
LAYER1
  2
Group50
 70
     0
 10
0
 20
0
 30
0
  0
LINE
  8
LAYER1
  6
CONTINUOUS
 62
     7
 10
12.1944
 20
6.0673
 30
0
 11
12.2778
 21
6.1506
 31
0
  0
POLYLINE
  8
LAYER1
  6
CONTINUOUS
 62
     7
 66
     1
 70
     0
 40
0.001
 41
0.001
  0
VERTEX
  8
LAYER1
 10
10.5139
 20
3.97
 30
0
 70
     0
  0
VERTEX
  8
LAYER1
 10
11.5278
 20
3.97
 30
0
 70
     0
  0
VERTEX
  8
LAYER1
 10
11.5278
 20
2.9562
 30
0
 70
     0
  0
VERTEX
  8
LAYER1
 10
10.5139
 20
2.9562
 30
0
 70
     0
  0
VERTEX
  8
LAYER1
 10
10.5139
 20
3.97
 30
0
 70
     0
  0
SEQEND
  0
INSERT
  8
LAYER1
  2
Group49
 10
0
 20
0
 30
0
  0
ENDBLK
  8
LAYER1
  0
BLOCK
  8
LAYER1
  2
Group51
 70
     0
 10
0
 20
0
 30
0
  0
LINE
  8
LAYER1
  6
CONTINUOUS
 62
     7
 10
12.7083
 20
3.0117
 30
0
 11
13.0278
 21
3.345
 31
0
  0
LINE
  8
LAYER1
  6
CONTINUOUS
 62
     7
 10
12.5833
 20
2.9978
 30
0
 11
13.0556
 21
3.47
 31
0
  0
LINE
  8
LAYER1
  6
CONTINUOUS
 62
     7
 10
12.4722
 20
2.9978
 30
0
 11
13.0556
 21
3.5673
 31
0
  0
LINE
  8
LAYER1
  6
CONTINUOUS
 62
     7
 10
12.3889
 20
3.0256
 30
0
 11
13.0278
 21
3.6506
 31
0
  0
LINE
  8
LAYER1
  6
CONTINUOUS
 62
     7
 10
12.3194
 20
3.0534
 30
0
 11
13
 21
3.7339
 31
0
  0
LINE
  8
LAYER1
  6
CONTINUOUS
 62
     7
 10
12.25
 20
3.095
 30
0
 11
12.9583
 21
3.7895
 31
0
  0
LINE
  8
LAYER1
  6
CONTINUOUS
 62
     7
 10
12.1944
 20
3.1367
 30
0
 11
12.9028
 21
3.845
 31
0
  0
LINE
  8
LAYER1
  6
CONTINUOUS
 62
     7
 10
12.1528
 20
3.2062
 30
0
 11
12.8472
 21
3.9006
 31
0
  0
LINE
  8
LAYER1
  6
CONTINUOUS
 62
     7
 10
12.1111
 20
3.2617
 30
0
 11
12.7778
 21
3.9423
 31
0
  0
LINE
  8
LAYER1
  6
CONTINUOUS
 62
     7
 10
12.0833
 20
3.345
 30
0
 11
12.7083
 21
3.97
 31
0
  0
LINE
  8
LAYER1
  6
CONTINUOUS
 62
     7
 10
12.0556
 20
3.4284
 30
0
 11
12.625
 21
3.9839
 31
0
  0
LINE
  8
LAYER1
  6
CONTINUOUS
 62
     7
 10
12.0556
 20
3.5256
 30
0
 11
12.5139
 21
3.9978
 31
0
  0
LINE
  8
LAYER1
  6
CONTINUOUS
 62
     7
 10
12.0833
 20
3.6645
 30
0
 11
12.375
 21
3.9562
 31
0
  0
LINE
  8
LAYER1
  6
CONTINUOUS
 62
     7
 10
12.75
 20
3.0256
 30
0
 11
13.0139
 21
3.3034
 31
0
  0
LINE
  8
LAYER1
  6
CONTINUOUS
 62
     7
 10
12.6111
 20
2.9978
 30
0
 11
13.0556
 21
3.4423
 31
0
  0
LINE
  8
LAYER1
  6
CONTINUOUS
 62
     7
 10
12.5
 20
2.9978
 30
0
 11
13.0556
 21
3.5395
 31
0
  0
LINE
  8
LAYER1
  6
CONTINUOUS
 62
     7
 10
12.4167
 20
3.0117
 30
0
 11
13.0278
 21
3.6367
 31
0
  0
LINE
  8
LAYER1
  6
CONTINUOUS
 62
     7
 10
12.3333
 20
3.0395
 30
0
 11
13
 21
3.7062
 31
0
  0
LINE
  8
LAYER1
  6
CONTINUOUS
 62
     7
 10
12.2639
 20
3.0812
 30
0
 11
12.9722
 21
3.7756
 31
0
  0
LINE
  8
LAYER1
  6
CONTINUOUS
 62
     7
 10
12.2083
 20
3.1228
 30
0
 11
12.9167
 21
3.8312
 31
0
  0
LINE
  8
LAYER1
  6
CONTINUOUS
 62
     7
 10
12.1667
 20
3.1784
 30
0
 11
12.8611
 21
3.8867
 31
0
  0
LINE
  8
LAYER1
  6
CONTINUOUS
 62
     7
 10
12.125
 20
3.2478
 30
0
 11
12.8056
 21
3.9284
 31
0
  0
LINE
  8
LAYER1
  6
CONTINUOUS
 62
     7
 10
12.0833
 20
3.3173
 30
0
 11
12.7222
 21
3.9562
 31
0
  0
LINE
  8
LAYER1
  6
CONTINUOUS
 62
     7
 10
12.0694
 20
3.4006
 30
0
 11
12.6389
 21
3.9839
 31
0
  0
LINE
  8
LAYER1
  6
CONTINUOUS
 62
     7
 10
12.0556
 20
3.4978
 30
0
 11
12.5417
 21
3.9978
 31
0
  0
ENDBLK
  8
LAYER1
  0
BLOCK
  8
LAYER1
  2
Group52
 70
     0
 10
0
 20
0
 30
0
  0
LINE
  8
LAYER1
  6
CONTINUOUS
 62
     7
 10
10.5139
 20
3.9284
 30
0
 11
10.5556
 21
3.97
 31
0
  0
CIRCLE
  8
LAYER1
 10
12.5625
 20
3.4909
 30
0
 40
0.5069
  0
INSERT
  8
LAYER1
  2
Group51
 10
0
 20
0
 30
0
  0
ENDBLK
  8
LAYER1
  0
BLOCK
  8
LAYER1
  2
Group53
 70
     0
 10
0
 20
0
 30
0
  0
TEXT
  8
LAYER1
 62
     7
 10
2.4964
 20
0.0739
 30
0
 40
0.1389
  1
- 4-183 -
 50
0
999
Geneva
  0
TEXT
  8
LAYER1
 62
     7
 10
10.7325
 20
0.0739
 30
0
 40
0.1389
  1
- 4-184 -
 50
0
999
Geneva
  0
LINE
  8
LAYER1
  6
CONTINUOUS
 62
     7
 10
0.1944
 20
10.8867
 30
0
 11
4.6944
 21
10.8867
 31
0
  0
TEXT
  8
LAYER1
 62
     7
 10
0.2186
 20
10.6434
 30
0
 40
0.125
  1
Steel Square and Round Bars
 50
0
999
Geneva
  0
TEXT
  8
LAYER1
 62
     7
 10
0.7603
 20
8.8378
 30
0
 40
0.0833
  1
.25S
 50
0
999
Geneva
  0
TEXT
  8
LAYER1
 62
     7
 10
0.5659
 20
8.6434
 30
0
 40
0.0833
  1
Square Bar
 50
0
999
Geneva
  0
TEXT
  8
LAYER1
 62
     7
 10
2.0381
 20
8.6434
 30
0
 40
0.0833
  1
Round Bar
 50
0
999
Geneva
  0
TEXT
  8
LAYER1
 62
     7
 10
2.2048
 20
8.8378
 30
0
 40
0.0833
  1
.25R
 50
0
999
Geneva
  0
LINE
  8
LAYER1
  6
CONTINUOUS
 62
     7
 10
0.2222
 20
10.595
 30
0
 11
4.7222
 21
10.595
 31
0
  0
POLYLINE
  8
LAYER1
  6
CONTINUOUS
 62
     7
 66
     1
 70
     0
 40
0.001
 41
0.001
  0
VERTEX
  8
LAYER1
 10
0.9028
 20
9.3034
 30
0
 70
     0
  0
VERTEX
  8
LAYER1
 10
0.9444
 20
9.3034
 30
0
 70
     0
  0
VERTEX
  8
LAYER1
 10
0.9444
 20
9.2617
 30
0
 70
     0
  0
VERTEX
  8
LAYER1
 10
0.9028
 20
9.2617
 30
0
 70
     0
  0
VERTEX
  8
LAYER1
 10
0.9028
 20
9.3034
 30
0
 70
     0
  0
SEQEND
  0
CIRCLE
  8
LAYER1
 10
2.3542
 20
9.2964
 30
0
 40
0.0208
  0
INSERT
  8
LAYER1
  2
Group2
 10
0
 20
0
 30
0
  0
LINE
  8
LAYER1
  6
CONTINUOUS
 62
     7
 10
0.8889
 20
8.3034
 30
0
 11
0.9306
 21
8.345
 31
0
  0
CIRCLE
  8
LAYER1
 10
2.3472
 20
8.3034
 30
0
 40
0.0278
  0
TEXT
  8
LAYER1
 62
     7
 10
0.5659
 20
7.8378
 30
0
 40
0.0833
  1
Square Bar
 50
0
999
Geneva
  0
TEXT
  8
LAYER1
 62
     7
 10
2.0381
 20
7.8378
 30
0
 40
0.0833
  1
Round Bar
 50
0
999
Geneva
  0
TEXT
  8
LAYER1
 62
     7
 10
2.2464
 20
8.0184
 30
0
 40
0.0833
  1
.5R
 50
0
999
Geneva
  0
TEXT
  8
LAYER1
 62
     7
 10
0.802
 20
8.0184
 30
0
 40
0.0833
  1
.5S
 50
0
999
Geneva
  0
TEXT
  8
LAYER1
 62
     7
 10
0.5659
 20
6.7545
 30
0
 40
0.0833
  1
Square Bar
 50
0
999
Geneva
  0
TEXT
  8
LAYER1
 62
     7
 10
2.0381
 20
6.7545
 30
0
 40
0.0833
  1
Round Bar
 50
0
999
Geneva
  0
TEXT
  8
LAYER1
 62
     7
 10
2.2048
 20
6.935
 30
0
 40
0.0833
  1
.75R
 50
0
999
Geneva
  0
TEXT
  8
LAYER1
 62
     7
 10
0.7603
 20
6.935
 30
0
 40
0.0833
  1
.75S
 50
0
999
Geneva
  0
INSERT
  8
LAYER1
  2
Group3
 10
0
 20
0
 30
0
  0
INSERT
  8
LAYER1
  2
Group4
 10
0
 20
0
 30
0
  0
INSERT
  8
LAYER1
  2
Group6
 10
0
 20
0
 30
0
  0
INSERT
  8
LAYER1
  2
Group8
 10
0
 20
0
 30
0
  0
TEXT
  8
LAYER1
 62
     7
 10
0.5659
 20
5.685
 30
0
 40
0.0833
  1
Square Bar
 50
0
999
Geneva
  0
TEXT
  8
LAYER1
 62
     7
 10
2.0381
 20
5.685
 30
0
 40
0.0833
  1
Round Bar
 50
0
999
Geneva
  0
TEXT
  8
LAYER1
 62
     7
 10
2.2603
 20
5.8795
 30
0
 40
0.0833
  1
1R
 50
0
999
Geneva
  0
TEXT
  8
LAYER1
 62
     7
 10
0.8298
 20
5.8795
 30
0
 40
0.0833
  1
1S
 50
0
999
Geneva
  0
INSERT
  8
LAYER1
  2
Group10
 10
0
 20
0
 30
0
  0
INSERT
  8
LAYER1
  2
Group12
 10
0
 20
0
 30
0
  0
TEXT
  8
LAYER1
 62
     7
 10
0.5659
 20
4.5045
 30
0
 40
0.0833
  1
Square Bar
 50
0
999
Geneva
  0
TEXT
  8
LAYER1
 62
     7
 10
2.0381
 20
4.5045
 30
0
 40
0.0833
  1
Round Bar
 50
0
999
Geneva
  0
TEXT
  8
LAYER1
 62
     7
 10
2.2603
 20
4.685
 30
0
 40
0.0833
  1
2R
 50
0
999
Geneva
  0
TEXT
  8
LAYER1
 62
     7
 10
0.8298
 20
4.685
 30
0
 40
0.0833
  1
2S
 50
0
999
Geneva
  0
INSERT
  8
LAYER1
  2
Group14
 10
0
 20
0
 30
0
  0
INSERT
  8
LAYER1
  2
Group16
 10
0
 20
0
 30
0
  0
TEXT
  8
LAYER1
 62
     7
 10
0.5659
 20
3.0878
 30
0
 40
0.0833
  1
Square Bar
 50
0
999
Geneva
  0
TEXT
  8
LAYER1
 62
     7
 10
2.0381
 20
3.0878
 30
0
 40
0.0833
  1
Round Bar
 50
0
999
Geneva
  0
TEXT
  8
LAYER1
 62
     7
 10
2.2603
 20
3.2684
 30
0
 40
0.0833
  1
3R
 50
0
999
Geneva
  0
TEXT
  8
LAYER1
 62
     7
 10
0.8298
 20
3.2684
 30
0
 40
0.0833
  1
3S
 50
0
999
Geneva
  0
INSERT
  8
LAYER1
  2
Group18
 10
0
 20
0
 30
0
  0
TEXT
  8
LAYER1
 62
     7
 10
0.5659
 20
1.6434
 30
0
 40
0.0833
  1
Square Bar
 50
0
999
Geneva
  0
TEXT
  8
LAYER1
 62
     7
 10
2.0381
 20
1.6434
 30
0
 40
0.0833
  1
Round Bar
 50
0
999
Geneva
  0
TEXT
  8
LAYER1
 62
     7
 10
2.2603
 20
1.8378
 30
0
 40
0.0833
  1
4R
 50
0
999
Geneva
  0
TEXT
  8
LAYER1
 62
     7
 10
0.8298
 20
1.8378
 30
0
 40
0.0833
  1
4S
 50
0
999
Geneva
  0
INSERT
  8
LAYER1
  2
Group20
 10
0
 20
0
 30
0
  0
TEXT
  8
LAYER1
 62
     7
 10
3.8436
 20
8.8378
 30
0
 40
0.0833
  1
5S
 50
0
999
Geneva
  0
TEXT
  8
LAYER1
 62
     7
 10
3.5798
 20
8.6434
 30
0
 40
0.0833
  1
Square Bar
 50
0
999
Geneva
  0
TEXT
  8
LAYER1
 62
     7
 10
5.052
 20
8.6434
 30
0
 40
0.0833
  1
Round Bar
 50
0
999
Geneva
  0
TEXT
  8
LAYER1
 62
     7
 10
5.2881
 20
8.8378
 30
0
 40
0.0833
  1
5R
 50
0
999
Geneva
  0
INSERT
  8
LAYER1
  2
Group22
 10
0
 20
0
 30
0
  0
INSERT
  8
LAYER1
  2
Group24
 10
0
 20
0
 30
0
  0
INSERT
  8
LAYER1
  2
Group26
 10
0
 20
0
 30
0
  0
INSERT
  8
LAYER1
  2
Group28
 10
0
 20
0
 30
0
  0
TEXT
  8
LAYER1
 62
     7
 10
3.8436
 20
7.435
 30
0
 40
0.0833
  1
6S
 50
0
999
Geneva
  0
TEXT
  8
LAYER1
 62
     7
 10
3.5798
 20
7.2545
 30
0
 40
0.0833
  1
Square Bar
 50
0
999
Geneva
  0
TEXT
  8
LAYER1
 62
     7
 10
5.052
 20
7.2545
 30
0
 40
0.0833
  1
Round Bar
 50
0
999
Geneva
  0
TEXT
  8
LAYER1
 62
     7
 10
5.2881
 20
7.435
 30
0
 40
0.0833
  1
6R
 50
0
999
Geneva
  0
INSERT
  8
LAYER1
  2
Group30
 10
0
 20
0
 30
0
  0
INSERT
  8
LAYER1
  2
Group32
 10
0
 20
0
 30
0
  0
TEXT
  8
LAYER1
 62
     7
 10
3.8436
 20
5.5461
 30
0
 40
0.0833
  1
7S
 50
0
999
Geneva
  0
TEXT
  8
LAYER1
 62
     7
 10
3.5798
 20
5.3517
 30
0
 40
0.0833
  1
Square Bar
 50
0
999
Geneva
  0
TEXT
  8
LAYER1
 62
     7
 10
5.052
 20
5.3517
 30
0
 40
0.0833
  1
Round Bar
 50
0
999
Geneva
  0
TEXT
  8
LAYER1
 62
     7
 10
5.2881
 20
5.5461
 30
0
 40
0.0833
  1
7R
 50
0
999
Geneva
  0
INSERT
  8
LAYER1
  2
Group34
 10
0
 20
0
 30
0
  0
INSERT
  8
LAYER1
  2
Group36
 10
0
 20
0
 30
0
  0
TEXT
  8
LAYER1
 62
     7
 10
3.8436
 20
3.81
 30
0
 40
0.0833
  1
8S
 50
0
999
Geneva
  0
TEXT
  8
LAYER1
 62
     7
 10
3.5798
 20
3.6295
 30
0
 40
0.0833
  1
Square Bar
 50
0
999
Geneva
  0
TEXT
  8
LAYER1
 62
     7
 10
5.052
 20
3.6295
 30
0
 40
0.0833
  1
Round Bar
 50
0
999
Geneva
  0
TEXT
  8
LAYER1
 62
     7
 10
5.2881
 20
3.81
 30
0
 40
0.0833
  1
8R
 50
0
999
Geneva
  0
INSERT
  8
LAYER1
  2
Group38
 10
0
 20
0
 30
0
  0
INSERT
  8
LAYER1
  2
Group40
 10
0
 20
0
 30
0
  0
TEXT
  8
LAYER1
 62
     7
 10
3.8436
 20
1.81
 30
0
 40
0.0833
  1
9S
 50
0
999
Geneva
  0
TEXT
  8
LAYER1
 62
     7
 10
3.5798
 20
1.6295
 30
0
 40
0.0833
  1
Square Bar
 50
0
999
Geneva
  0
TEXT
  8
LAYER1
 62
     7
 10
5.052
 20
1.6295
 30
0
 40
0.0833
  1
Round Bar
 50
0
999
Geneva
  0
TEXT
  8
LAYER1
 62
     7
 10
5.2881
 20
1.81
 30
0
 40
0.0833
  1
9R
 50
0
999
Geneva
  0
INSERT
  8
LAYER1
  2
Group42
 10
0
 20
0
 30
0
  0
INSERT
  8
LAYER1
  2
Group44
 10
0
 20
0
 30
0
  0
TEXT
  8
LAYER1
 62
     7
 10
10.8853
 20
7.0045
 30
0
 40
0.0833
  1
10S
 50
0
999
Geneva
  0
TEXT
  8
LAYER1
 62
     7
 10
10.6631
 20
6.81
 30
0
 40
0.0833
  1
Square Bar
 50
0
999
Geneva
  0
TEXT
  8
LAYER1
 62
     7
 10
12.2464
 20
6.81
 30
0
 40
0.0833
  1
Round Bar
 50
0
999
Geneva
  0
TEXT
  8
LAYER1
 62
     7
 10
12.427
 20
7.0045
 30
0
 40
0.0833
  1
10R
 50
0
999
Geneva
  0
INSERT
  8
LAYER1
  2
Group46
 10
0
 20
0
 30
0
  0
INSERT
  8
LAYER1
  2
Group48
 10
0
 20
0
 30
0
  0
TEXT
  8
LAYER1
 62
     7
 10
10.8853
 20
4.8378
 30
0
 40
0.0833
  1
11S
 50
0
999
Geneva
  0
TEXT
  8
LAYER1
 62
     7
 10
10.6631
 20
4.6434
 30
0
 40
0.0833
  1
Square Bar
 50
0
999
Geneva
  0
TEXT
  8
LAYER1
 62
     7
 10
12.2464
 20
4.6434
 30
0
 40
0.0833
  1
Round Bar
 50
0
999
Geneva
  0
TEXT
  8
LAYER1
 62
     7
 10
12.427
 20
4.8378
 30
0
 40
0.0833
  1
11R
 50
0
999
Geneva
  0
INSERT
  8
LAYER1
  2
Group50
 10
0
 20
0
 30
0
  0
INSERT
  8
LAYER1
  2
Group52
 10
0
 20
0
 30
0
  0
TEXT
  8
LAYER1
 62
     7
 10
10.8853
 20
2.5184
 30
0
 40
0.0833
  1
12S
 50
0
999
Geneva
  0
TEXT
  8
LAYER1
 62
     7
 10
10.6631
 20
2.3378
 30
0
 40
0.0833
  1
Square Bar
 50
0
999
Geneva
  0
TEXT
  8
LAYER1
 62
     7
 10
12.2464
 20
2.3378
 30
0
 40
0.0833
  1
Round Bar
 50
0
999
Geneva
  0
TEXT
  8
LAYER1
 62
     7
 10
12.427
 20
2.5184
 30
0
 40
0.0833
  1
12R
 50
0
999
Geneva
  0
LINE
  8
LAYER1
  6
CONTINUOUS
 62
     7
 10
12.0694
 20
3.6228
 30
0
 11
12.4167
 21
3.97
 31
0
  0
LINE
  8
LAYER1
  6
CONTINUOUS
 62
     7
 10
8.625
 20
10.9006
 30
0
 11
13.125
 21
10.9006
 31
0
  0
TEXT
  8
LAYER1
 62
     7
 10
8.6353
 20
10.6711
 30
0
 40
0.125
  1
Steel Square and Round Bars
 50
0
999
Geneva
  0
TEXT
  8
LAYER1
 62
     7
 10
4.9409
 20
0.2961
 30
0
 40
0.0833
  1
©1992
 50
0
999
Geneva
  0
TEXT
  8
LAYER1
 62
     7
 10
4.2325
 20
0.1295
 30
0
 40
0.0833
  1
Advanced System Design, Inc.
 50
0
999
Geneva
  0
TEXT
  8
LAYER1
 62
     7
 10
0.2048
 20
0.1434
 30
0
 40
0.0833
  1
Scale 1in = 1ft  Printed at 70%
 50
0
999
Geneva
  0
TEXT
  8
LAYER1
 62
     7
 10
13.302
 20
0.2961
 30
0
 40
0.0833
  1
©1992
 50
0
999
Geneva
  0
TEXT
  8
LAYER1
 62
     7
 10
12.5936
 20
0.1295
 30
0
 40
0.0833
  1
Advanced System Design, Inc.
 50
0
999
Geneva
  0
TEXT
  8
LAYER1
 62
     7
 10
8.6353
 20
0.1434
 30
0
 40
0.0833
  1
Scale 1in = 1ft  Printed at 70%
 50
0
999
Geneva
  0
TEXT
  8
LAYER1
 62
     7
 10
0.7048
 20
8.4906
 30
0
 40
0.0833
  1
41800
 50
0
999
Geneva
  0
TEXT
  8
LAYER1
 62
     7
 10
2.1353
 20
8.4906
 30
0
 40
0.0833
  1
41801
 50
0
999
Geneva
  0
TEXT
  8
LAYER1
 62
     7
 10
3.7186
 20
8.4906
 30
0
 40
0.0833
  1
41802
 50
0
999
Geneva
  0
TEXT
  8
LAYER1
 62
     7
 10
5.1631
 20
8.4906
 30
0
 40
0.0833
  1
41803
 50
0
999
Geneva
  0
TEXT
  8
LAYER1
 62
     7
 10
0.7048
 20
7.6989
 30
0
 40
0.0833
  1
41804
 50
0
999
Geneva
  0
TEXT
  8
LAYER1
 62
     7
 10
2.1353
 20
7.685
 30
0
 40
0.0833
  1
41805
 50
0
999
Geneva
  0
TEXT
  8
LAYER1
 62
     7
 10
3.7186
 20
7.1017
 30
0
 40
0.0833
  1
41806
 50
0
999
Geneva
  0
TEXT
  8
LAYER1
 62
     7
 10
5.1631
 20
7.06
 30
0
 40
0.0833
  1
41807
 50
0
999
Geneva
  0
TEXT
  8
LAYER1
 62
     7
 10
0.7048
 20
6.6156
 30
0
 40
0.0833
  1
41808
 50
0
999
Geneva
  0
TEXT
  8
LAYER1
 62
     7
 10
2.1353
 20
6.5878
 30
0
 40
0.0833
  1
41809
 50
0
999
Geneva
  0
TEXT
  8
LAYER1
 62
     7
 10
0.7048
 20
5.5045
 30
0
 40
0.0833
  1
41810
 50
0
999
Geneva
  0
TEXT
  8
LAYER1
 62
     7
 10
2.1353
 20
5.5184
 30
0
 40
0.0833
  1
41811
 50
0
999
Geneva
  0
TEXT
  8
LAYER1
 62
     7
 10
3.7186
 20
5.1989
 30
0
 40
0.0833
  1
41812
 50
0
999
Geneva
  0
TEXT
  8
LAYER1
 62
     7
 10
5.1631
 20
5.2128
 30
0
 40
0.0833
  1
41813
 50
0
999
Geneva
  0
TEXT
  8
LAYER1
 62
     7
 10
0.7048
 20
4.3656
 30
0
 40
0.0833
  1
41814
 50
0
999
Geneva
  0
TEXT
  8
LAYER1
 62
     7
 10
2.1353
 20
4.3517
 30
0
 40
0.0833
  1
41815
 50
0
999
Geneva
  0
TEXT
  8
LAYER1
 62
     7
 10
0.7048
 20
2.935
 30
0
 40
0.0833
  1
41816
 50
0
999
Geneva
  0
TEXT
  8
LAYER1
 62
     7
 10
2.1353
 20
2.9211
 30
0
 40
0.0833
  1
41817
 50
0
999
Geneva
  0
TEXT
  8
LAYER1
 62
     7
 10
3.7186
 20
3.4489
 30
0
 40
0.0833
  1
41818
 50
0
999
Geneva
  0
TEXT
  8
LAYER1
 62
     7
 10
5.1631
 20
3.4628
 30
0
 40
0.0833
  1
41819
 50
0
999
Geneva
  0
TEXT
  8
LAYER1
 62
     7
 10
0.7048
 20
1.4767
 30
0
 40
0.0833
  1
41820
 50
0
999
Geneva
  0
TEXT
  8
LAYER1
 62
     7
 10
2.1353
 20
1.4767
 30
0
 40
0.0833
  1
41821
 50
0
999
Geneva
  0
TEXT
  8
LAYER1
 62
     7
 10
3.7186
 20
1.4489
 30
0
 40
0.0833
  1
41822
 50
0
999
Geneva
  0
TEXT
  8
LAYER1
 62
     7
 10
5.1631
 20
1.4628
 30
0
 40
0.0833
  1
41823
 50
0
999
Geneva
  0
TEXT
  8
LAYER1
 62
     7
 10
10.802
 20
6.6295
 30
0
 40
0.0833
  1
41824
 50
0
999
Geneva
  0
TEXT
  8
LAYER1
 62
     7
 10
12.3436
 20
6.6295
 30
0
 40
0.0833
  1
41825
 50
0
999
Geneva
  0
TEXT
  8
LAYER1
 62
     7
 10
10.802
 20
4.435
 30
0
 40
0.0833
  1
41826
 50
0
999
Geneva
  0
TEXT
  8
LAYER1
 62
     7
 10
12.3436
 20
4.435
 30
0
 40
0.0833
  1
41827
 50
0
999
Geneva
  0
TEXT
  8
LAYER1
 62
     7
 10
10.802
 20
2.1295
 30
0
 40
0.0833
  1
41828
 50
0
999
Geneva
  0
TEXT
  8
LAYER1
 62
     7
 10
12.3436
 20
2.1295
 30
0
 40
0.0833
  1
41829
 50
0
999
Geneva
  0
ENDBLK
  8
LAYER1
  0
ENDSEC
  0
SECTION
  2
ENTITIES
  0
INSERT
  8
LAYER1
  2
Group53
 10
0
 20
0
 30
0
  0
ENDSEC
  0
EOF
